Misc Artists - Troubless Chords & Tabs

 

Troubless Chords & Tabs

Misc Artists Chords & Tabs

Version: 1 Type: Tab 0 ratings
1 star 2 stars 3 stars 4 stars 5 stars
comments

Troubless Tab

This is a song written by beau mandic, im steve albert putting it up for him though just because i am board, tis a good song, soon forgotten will be something all of you will know



     1st part, Intro




---------------------------------------------------------
---------------------------------------------------------
---------------------------------------------------------
---------------------------------------------------------
----7---5---3---1-1-1------9---7---5------11---9---7---5-
0-0---0---0---0--------0-0---0---0----0-0----0---0---0---

[ Tab from: http://www.guitartabs.cc/tabs/m/misc_artists/troubless_tab.html ]
---------------------------------------------------------
---------------------------------------------------------
---------------------------------------------------------
---------------------------------------------------------
-----9---7---5--------------------------------------------
-0-0---0---0----------------------------------------------


2nd part right after intro


----------------------------------------------------------
----------------------------------------------------------
----------------------------------------------------------
----------------------------------------------------------
9-9-9-9-9-9----9-9-9-9-9-9---5-5-5-5-5-5---5-5-5-5-5-5----
7-7-7-7-7-7----7-7-7-7-7-7---3-3-3-3-3-3---3-3-3-3-3-3----



----------------------------------------------------------
----------------------------------------------------------
----------------------------------------------------------
----------------------------------------------------------
9-9-9-9-9-9----9-9-9-9-9-9---5-5-5-5-5-5---5-5-5-5-5-5----
7-7-7-7-7-7----7-7-7-7-7-7---3-3-3-3-3-3---3-3-3-3-3-3----

then you go back to the intro, then back to thus part and then it ends, its easy but cool
Comments