Misc Artists - This Is A Song Im Workin On Chords & Tabs

 

This Is A Song Im Workin On Chords & Tabs

Misc Artists Chords & Tabs

Version: 1 Type: Tab 0 ratings
1 star 2 stars 3 stars 4 stars 5 stars
comments

This Is A Song Im Workin On Tab


[ Tab from: http://www.guitartabs.cc/tabs/m/misc_artists/this_is_a_song_im_workin_on_tab.html ]
--------------------------------------
--------1-------0------3--------------
--------------0----------------2x-----
---2-------2-------3------------------
0-------------------------------------
--------------------------------------

[ Tab from: http://www.guitartabs.cc/tabs/m/misc_artists/this_is_a_song_im_workin_on_tab.html ]-------------------------------------
--1---1-----0---0-----3--3-----------
--0---0-----0---0-----0--0-----------
--2---2-----2---2-----0--0-----------
--0---0---------------3--3-----------
-------------------------------------
Comments