Misc Artists - Spanish Girls Chords & Tabs

 

Spanish Girls Chords & Tabs

Misc Artists Chords & Tabs

Version: 1 Type: Tab 0 ratings
1 star 2 stars 3 stars 4 stars 5 stars
comments

Spanish Girls Tab

Chorus/verse
e  ---------------------------------------------------------
b  ---------------------------------------------------------
g  ---------------------------------------------------------
d  -----5------5-----4-----4------2----2------1------1------
a  --7------7-----5-----5------3-----3-----2------2---------
E  ---------------------------------------------------------
[ Tab from: http://www.guitartabs.cc/tabs/m/misc_artists/spanish_girls_tab.html ]
Brigde
e  ---------------------------------------------------------
b  ---------------------------------------------------------
g  ---------------------------------------------------------(2X)
d  -5--5--5--5--4--4--4--4--2--2--2--2--1--1--1--1----------
a  -7--7--7--7--5--5--5--5--3--3--3--3--2--2--2--2----------
E  ---------------------------------------------------------

Chorus/verse
e  ---------------------------------------------------------
b  ---------------------------------------------------------
g  ---------------------------------------------------------
d  -----5------5-----4-----4------2----2------1------1------
a  --7------7-----5-----5------3-----3-----2------2---------
E  ---------------------------------------------------------
[ Tab from: http://www.guitartabs.cc/tabs/m/misc_artists/spanish_girls_tab.html ]

Play this melody over and over until the song is over. 
Here are some lyrics to put in this song. If you do it the right way. 
U will win any women over. Trust me it's tru. 
Blake n Eric
Comments