Misc Artists - Searching My Soul Chords & Tabs

 

Searching My Soul Chords & Tabs

Misc Artists Chords & Tabs

Version: 1 Type: Tab 0 ratings
1 star 2 stars 3 stars 4 stars 5 stars
comments

Searching My Soul Tab

Searching my Soul
By Vonda Sheppard
track: #1 Ally McBeal Soundtrack
tabbed by: Shaun Evans
email:FRE4K@HOTMAIL.COM

This doesn’t seem to be tabbed anywhere else and there are a few requests for it so here it goes any suggestions email me.
Listen to the song for the timings….i’ve tried to link it to the lyrics so hope that helps
I’ve done the first verse and chorus. The whole song is based around that so its easy to figure out

p.m.=palm mute
h   =hammer on
p   =pull off

intro:
e|---------------------------------------------------
B|---------------------------------------------------
G|------3--------------------------------------------
D|--3---3--------------------------------------------
A|--3---1---1--3--5-6--6---6--5--3---1---------------
E|--1--------------h--------------------------------

Verse:
e|-----------------------------------------------------------------
B|-----------------------------------------------------------------
G|-------------------------8---------------------------------------
D|--3----------------------8--------------8----------------------3--
A|--3----------------------6--------------8----------------------3--
E|--1-------------------------------------6----------------------1--
".I’ve been down this road, walking the line thats painted by pride
[ Tab from: http://www.guitartabs.cc/tabs/m/misc_artists/searching_my_soul_tab.html ]
e|-----------------------------------------------------------------
B|-----------------------------------------------------------------
G|--------------8--------------------------------------------------
D|--3-----------8----------------------8----------------3-----------
A|--3-----------6----------------------8----------------3-----------
E|--1----------------------------------6----------------1-----------
I have made mistakes in my life, that I   just cant hide
bridge build to chorus
e|---------------------------------------------------
B|-----------------------------------------------------
G|--6----------------------------3--3----3-3------3---
D|--6--------------6-------------3--3----3-3------3---
A|--4--------------6-------------1--1----1-1------1-------
E|-----------------4------------------------------------
“oh I believe I am ready, for what love has to bring



e|-------------------------------------------------------------
B|----------------------------------------------------------
G|--6----------------------------3--3-----5--5--5-----
D|--6--------------6-------------3--3-----5--5--5-----
A|--4--------------6-------------1--1-----3--3--3---------
E|-----------------4-----------------------pm pm-------------
    Got myself together,        now I’m ready to sing







chorus
e|---------------------------------------------------
B|-----------------------------------------------------
G|--10------10-------------------------------------------
D|--10------10---------8-----------------------------------
A|--8-------8----------8----3--5--6---6----6—---5--3-------
E|---------------------6--6------h------------------------6

I’ve been searchin my soul tonight,I know theres so much more to life
Now I know I can shine the light, gonna find my way back home



e|---------------------------------------------------
B|-----------------------------------------------------
G|----------------------------------------------------
D|----------------------------------------------------
A|-------------------------------------------------------
E|-----------------------------------------------------








Comments