Misc Artists - Prelude In E Minor Chords & Tabs

 

Prelude In E Minor Chords & Tabs

Misc Artists Chords & Tabs

Version: 1 Type: Tab 0 ratings
1 star 2 stars 3 stars 4 stars 5 stars
comments

Prelude In E Minor Tab

Submitted by: Kendall Nez
Song Title: Prelude In E Minor
Artist: Nez, Kendall
Tuning: Standard Low to high EBGDAE
This is my own song and I hope you like it. It is in mostly arppegios
and the tempo is in sixteenth notes.It is a really good song believe me.
[ Tab from: http://www.guitartabs.cc/tabs/m/misc_artists/prelude_in_e_minor_tab.html ]
E-----0------0------3------0------2------2------0-------------0-----0----------
B----0--0---0--0---0--0---0--0---1--1---1--1---0--0----2-----0--0--0--0------------------
G---0--0---0--0---0--0---0--0---2--2---2--2---0--0----4--4--0--0--0--0--------------------
D----------------------------------------------------4--4---------------
A------------------------------0------0------2------2---------------------
E-0-------0------0------0----------------------------------0-----0----------

E----0------1-------1------2------0-------------0------------------------
B---0--0---0--0----2--2---1--1---0--0----2-----0--0--------------------------------
G--1--1---1--1----3--3---2--2---0--0----4--4--0--0----------------------------------
D-2------0-----------------------------4--4---------4----------------------
A----------------0------0------2------2-----------------------------------
E--------------------------------------------0-------------------------

You can play this song in many styles by putting the riffs in different order
but this the way i play it.Enjoy
Comments