Misc Artists - Power Chords & Tabs

 

Power Chords & Tabs

Misc Artists Chords & Tabs

Version: 1 Type: Tab 0 ratings
1 star 2 stars 3 stars 4 stars 5 stars
comments

Power Tab

Artist: H-Blockx
Song: The Power

Tabbed by: GregM

Drop D tuning:

Intro and main riff:
e-----------------------------|
B-----------------------------|
G--5/6------------------------|
D--------------5--------------|
A------4--7--4---4--7--4-4-4--|
D-----------------------------|
[ Tab from: http://www.guitartabs.cc/tabs/m/misc_artists/power_tab.html ]
e--------------------------------|
B--------------------------------|
G--5/6---------------------------|
D--------------5-----------------|
A------4--7--4---4--7--9-9-9-----|
D--------------------------------|

Play this during the 1st rap:

A--4-4-4-----     or    A------------
D------------           D--0-0-0-----

Play this during the last rap:

A--0-0---0-0-----
D--0-0---0-0-----


To get the timing right, listen to the cd. 
You need a bass to make the song sound really good.

corrections or comments: GregM@gmx.net
Comments