Misc Artists - Orange Side Of Life Chords & Tabs

 

Orange Side Of Life Chords & Tabs

Misc Artists Chords & Tabs

Version: 1 Type: Tab 0 ratings
1 star 2 stars 3 stars 4 stars 5 stars
comments

Orange Side Of Life Tab

The Orange side of life
By Ronald C Bruce 2002

      1. ---------2-------------------------------------
         -------------------------2-----------33333---
          ---0------------0-------------0---------------
    x2  ------------------------------------------------
         ------------------------------------------------
         ------------------------------------------------ 

      2. ---------2-------------------------------------
          -------------------------2-----------33333---
          ---2------------2-------------2---------------
     x2 ------------------------------------------------
          ------------------------------------------------
          ------------------------------------------------
[ Tab from: http://www.guitartabs.cc/tabs/m/misc_artists/orange_side_of_life_tab.html ]
         3.---------2-------------------------------------
          -------------------------2-----------33333---
          ---3------------3-------------3---------------
   x2   ------------------------------------------------
          ------------------------------------------------
          ------------------------------------------------
4.
          -------------33333-------------22222--------
          --------0-----------------0--------------------
    x4  ---0-------------------0-----------------------
          ------------------------------------------------
          ------------------------------------------------
          -------------------------------------------------
5. 
         ---------2-------------------------------------
         -------------------------2-----------3--------
         ---0------------0-------------0---------------
         ------------------------------------------------
         ------------------------------------------------
        ------------------------------------------------

6.        ---------2-------------------------------------
         -------------------------2-----------3--------
         ---2------------2-------------2---------------
         ------------------------------------------------
         ------------------------------------------------
        ------------------------------------------------


    7.   ---------2-------------------------------------
         -------------------------2-----------3--------
         ---3------------3-------------3---------------
         ------------------------------------------------
         ------------------------------------------------
        ------------------------------------------------


8.	Repeat 1,2,3 and play again but start to fade off with the next bit


    9.     ---------32-------------------------------------
            ------0-------------320-------------------------
            ---0----------------------------------------------
            --------------------------------------------------
            --------------------------------------------------
            --------------------------------------------------
If you want to speak to me who made this song email me at smashedabdomen@aol.com
Comments