Misc Artists - Old Wrinkly Balls Chords & Tabs

 

Old Wrinkly Balls Chords & Tabs

Misc Artists Chords & Tabs

Version: 1 Type: Tab 0 ratings
1 star 2 stars 3 stars 4 stars 5 stars
comments

Old Wrinkly Balls Tab

                    
old wrinkly balls
artist mario guerra
writen by mario guerra
with the asistance of poncho                   
                        

                  old wrinkly balls
                              
                       intro
    ---------------------------------------------
    ---------------------------------------------
    ---------------------------------------------
    ---3-3-2--3-3-2---3-3-2--3-2-2-0-------------    (3x)
    --3-------------0----------------------------
    ---------3-----------------------------------


                         part 1
    
[ Tab from: http://www.guitartabs.cc/tabs/m/misc_artists/old_wrinkly_balls_tab.html ]
----------------------------------------------------
----------------------------------------------------
----------------------------------------------------
----5-3-2-0-----------5-3-2-0-------------5-3-2-0---
--3------------------3-------------------3----------
----------------------------------------------------
i-walked-in-the-gym--and-then-i-saw-him--with-his-big-pink


    


                                                (chorus)
    -----------------------------------------------------------------------------------
    -----------------------------------------------------------------------------------
    -----------------------------------------------------------------------------------
    ---3-3-2------------------------------3-3-2-------------3-3-2--3-2-2-0-------------
    --3---------------------------------0----------------------------------------------
    -------------------3---------------------------------------------------------------
    old-wrinkly-balls--0ld-jiggly-balls--old-wrinkly-balls--that's-fuking-gross   
Comments