Misc Artists - Never Chords & Tabs

 

Never Chords & Tabs

Misc Artists Chords & Tabs

Version: 1 Type: Tab 0 ratings
1 star 2 stars 3 stars 4 stars 5 stars
comments

Never Tab

Chords- opening verse

e-------------3--
B-3---3---3---3--
G-----2---------- repeat a couple of times
D-2-----------2--
A-2---2---2---3--
E---------3------
[ Tab from: http://www.guitartabs.cc/tabs/m/misc_artists/never_tab.html ]
Other Junk
e--------------------------
B-------------------2-2-2--
G-6-6-6-7-7-7-1-1-1-1-1-1--
D-7-7-7-7-7-7-2-2-2-2-2-2-- repeat a couple of times, then...
A--------------------------
E--------------------------

e--------------------------------
B-3-3-3-3-3-3-3-3-3-3-3-3-3-3-3--
G-2-2-2-2-2-2-2-2-2-2-2-2-2-2-2--
D--------------------------------
A--------------------------------
E-3-3-3-3-3-3-3-3-3-3-3-3-3-3-3--
Comments