Misc Artists - My Own Little Tune Chords & Tabs

 

My Own Little Tune Chords & Tabs

Misc Artists Chords & Tabs

Version: 1 Type: Tab 0 ratings
1 star 2 stars 3 stars 4 stars 5 stars
comments

My Own Little Tune Tab

I Know This Isn't the best tune you've ever played, but it's mine!  I created it!
It's good for beginners because it's really easy.

THIS IS FISH'S TUNE!



(kind of an intro)
E------------------------------------------------------------------------------------
b------------------------------------------------------------------------------------
------------------------------------------------------------------------------------
---2--7---------3--5--------2---------repeat a lot---------------------
---2----6--7----3-----4--5--2-------------------------------------------------------
------------------------------------------------------------------------------------



E------------------------------------------------------------------------------------
b------------------------------------------------------------------------------------
------------------------------------------------------------------------------------
------------------------------------------------------------------------------------
------------------------------------------------------------------------------------
------------------------------------------------------------------------------------

(Kind of a solo)
Play like your fingers are on fire!

E--1------2------3-----4-----5-----6-----7-----8-----9-------10-----------------------
b----2-1----3-2----4-3---5-4---6-5---7-6---8-7---9-8---10-9-----11-10-------------------
------------------------------------------------------------------------------------
------------------------------------------------------------------------------------
------------------------------------------------------------------------------------
------------------------------------------------------------------------------------


[ Tab from: http://www.guitartabs.cc/tabs/m/misc_artists/my_own_little_tune_tab.html ]
E--11--------12--------13--------14---------13----------12---------------------------------
b-----12-11-----13-12-----14-13-----15--14-----14--13-------13--12-----------------------------
------------------------------------------------------------------------------------
------------------------------------------------------------------------------------
------------------------------------------------------------------------------------
------------------------------------------------------------------------------------



E--11--------------10----------9----------8--------7---------6-------------------------------
b-------12---11--------11--10------10--9-----9-8------8--7------7--6--------------------------------
------------------------------------------------------------------------------------
------------------------------------------------------------------------------------
------------------------------------------------------------------------------------
------------------------------------------------------------------------------------


                                                   (End solo)
E--5-------4-------3----------2----------1------------------------------------------------
b----6--5----5-4------4--3-------3--2------2--1------------------------------------------------
------------------------------------------------------------------------------------
---------------------------------------------------2----7-----------------------------
---------------------------------------------------2-------6--7------------------------
----------------------------------------------------------------------




E------------------------------------------------------------------------------------
b------------------------------------------------------------------------------------
------------------------------------------------------------------------------------
---2--7---------3--5--------2---------repeat a lot---------------------
---2----6--7----3-----4--5--2-------------------------------------------------------
------------------------------------------------------------------------------------





Well, That's all folks!

I'd like to thank my pal ZAK the JAK for keeping me interested, and
my band/group:  HIGH VOLTAGE!


FISH/STEVE 
Comments