Misc Artists - Monica Chords & Tabs

 

Monica Chords & Tabs

Misc Artists Chords & Tabs

Version: 1 Type: Tab 0 ratings
1 star 2 stars 3 stars 4 stars 5 stars
comments

Monica Tab

   
This is a nice song that I made up. It reminds me of 
my girlfriends andif you play it right, you will impress 
the girl of your dreams. It is suppose to be play as 
smooth as possible. I hope you enjoy!!!

e------------------------------------------------------------
b-----5---6-5----6--8---5-6-5-6-5---3------------------------
g-5-7--------------------------------------------------------
d------------------------------------------------------------
a------------------------------------------------------------
E------------------------------------------------------------
[ Tab from: http://www.guitartabs.cc/tabs/m/misc_artists/monica_tab.html ]
e-----------------------------0------------------------------
b-3-5-6---5-6--3-1----------1---1----------------------------
g---------------------2---2-------0--------------------------
d-----------------------0------------------------------------
a------------------------------------------------------------
E------------------------------------------------------------

e------------------------------------------------------------
b-----5---6-5----6--8---5-6-5-6-5---3------------------------
g-5-7--------------------------------------------------------
d------------------------------------------------------------
a------------------------------------------------------------
E------------------------------------------------------------

e-----------------------------0------------------------------
b-3-5-6---5-6--3-1----------1---1----------------------------
g---------------------2---2-------0--------------------------
d-----------------------0------------------------------------
a------------------------------------------------------------
E------------------------------------------------------------

e-0-
b-0-
g-2-
d-2-
a-0-
e-0-


Comments