Misc Artists - In Your Hands Chords & Tabs

 

In Your Hands Chords & Tabs

Misc Artists Chords & Tabs

Version: 1 Type: Tab 0 ratings
1 star 2 stars 3 stars 4 stars 5 stars
comments

In Your Hands Tab

   
song:in your hands
artist:me (sam widdop)
album:n/a
copyright sam widdop 2002
__________________________________________________________________
guitar

intro/verse:                                              
|-----------------------------------------------------| 
|-----------------------------------------------------| 
|-----------------------------------------------------| 
|9--9-9-9-9-9-9-7--7-7-7-7-7-7-11--11-11-11-11-11-11--| 
|9--9-9-9-9-9-9-7--7-7-7-7-7-7-11--11-11-11-11-11-11--| 
|7--7-7-7-7-7-7-5--5-5-5-5-5-5-9----9--9--9--9--9--9--| 
                                                           

chorus:
|-----------------------------|
|-----------------------------|
|-------7--7-7-9--9-9---------|
|7--7-7-7--7-7-9--9-9-9-9-9-9-|
|7--7-7-5--5-5-7--7-7-9-9-9-9-|
|5--5-5---------------7-7-7-7-|


solo: 
|--------------------------------------------------------------|
|--------------------------------------------------------------|
|----------------------------------------10^-9-8-------10^-9-8-|
|8----11-8----11-0--0--0-8----11-8----11---------8h9p8---------|
|--10------10--------------10------10--------------------------|
|--------------------------------------------------------------|

[ Tab from: http://www.guitartabs.cc/tabs/m/misc_artists/in_your_hands_tab.html ]
outro:
|--------------------------------------------------|
|--------------------------------------------------|
|--------------------------------------------------|
|----9-----9---------7-----7---------5---5-5-5-5-3-|
|----9-----9---------7-----7---------5---5-5-5-5-3-|
|7-7---7-7---7-7-5-5---5-5---5-5-3-3---3-----------|

_________________________________________________________________
lyrics:
verse 1:
Just cos its what they say
aint what you gotta do
Just cos its what they think
dont have to belive it too
Theres a time to decide
Whats wrong and whats right
but the desicions in your hands


chorus(repeat twice):
its in your hands
i understand
its your choice
its your life


verse 2:
What are you in life for?
is it to win and score?                                                          
or just to take commands
and if i say to you
thats what im gonna do
will the choice be mine?
will it all be in my hands?


chorus(repeat twice):

verse 3:
If they went away
left you all alone
would things be better
on your own
i cant decide for you
so what ya gonna do?
when life is in your hands

outro chorus(repeat 10 times w/fading):
____________________________________________________________
order:
intro: intro/verse X 2 with out vocals
verse 1: intro/verse X 6 with vocals
chorus: chorus X5 with vocals
verse 2: intro/verse X 6 with vocals
solo: solo X 1
chorus: chorus X 5 with vocals
verse 3: intro/verse X 6 with vocals
break: intro/verse X 4 without vocals
outro chorus: chorus X 20
_____________________________________________________________

Timings abit dodgy, i tried to show it, honest!
lyrics&guitar by sam widdop.
bass coming as soon as i can be assed.
Email (fffan41@AOL.com) or i.m me (fffan41) with feedback about 
the song(good or bad).
well enjoy.
      









Comments