Misc Artists - I Wanna Wake Up With You Chords & Tabs

 

I Wanna Wake Up With You Chords & Tabs

Misc Artists Chords & Tabs

Version: 1 Type: Tab 0 ratings
1 star 2 stars 3 stars 4 stars 5 stars
comments

I Wanna Wake Up With You Tab

   
                                   I wanna wake up with you                                     


hentet på www.guitaren.dk
                                                                               
E||------------------|------------------|------------------|------------------|
B||------------------|------------------|------------------|------------------|
G||------------------|------------------|------------------|------------------|
D||------------------|------------------|------------------|------------------|
A||------------------|------------------|------------------|------------------|
E||------------------|------------------|------------------|------------------|


                                          D#   D#   A#   A#  
------------------|------------------|----------------------|
------------------|------------------|----4----4----3----3--|
------------------|------------------|----3----3----3----3--|
------------------|------------------|----5----5----3----3--|
------------------|------------------|----------------------|
------------------|------------------|----------------------|


    Cm   Cm   D#7  D#7     G#   G#   A#   A#      D#   D#   D#7 D#D#7 
----------------------|----------------------|-----------------------|
----4----4----4----4--|----4----4----3----3--|----4----4----4---4-4--|
----5----5----6----6--|----5----5----3----3--|----3----3----6---6-6--|
----5----5----5----5--|----6----6----3----3--|----5----5----5---5-5--|
----------------------|----------------------|-----------------------|
----------------------|----------------------|-----------------------|


    G#   G#   A#   A#      Cm   Cm   G#   Am/5    D#   D#   D#6   D#6  
----------------------|----------------------|------------------------|
----4----4----3----3--|----4----4----4----4--|----4----4----4-----4---|
----5----5----3----3--|----5----5----5----5--|----3----3----5-----5---|
----6----6----3----3--|----5----5----6----7--|----5----5----8-----8---|
----------------------|----------------------|--------------11----11--|
----------------------|----------------------|------------------------|

[ Tab from: http://www.guitartabs.cc/tabs/m/misc_artists/i_wanna_wake_up_with_you_tab.html ]
    D#   D#   A#/G#A#/G    D#   D#   A#   A#      Cm   Cm   D#7  D#7 
----------------------|----------------------|----------------------|
----4----4----3----3--|----4----4----3----3--|----4----4----4----4--|
----3----3----3----3--|----3----3----3----3--|----5----5----6----6--|
----5----5----6----6--|----5----5----3----3--|----5----5----5----5--|
----------------------|----------------------|----------------------|
----------------------|----------------------|----------------------|


    G#   G#   A#   A#      D#   D#   D#7  D#7     G#   G#   A#   A#  
----------------------|----------------------|----------------------|
----4----4----3----3--|----4----4----4----4--|----4----4----3----3--|
----5----5----3----3--|----3----3----6----6--|----5----5----3----3--|
----6----6----3----3--|----5----5----5----5--|----6----6----3----3--|
----------------------|----------------------|----------------------|
----------------------|----------------------|----------------------|


    Cm   Cm   G#   Am/5    D#   D#   G#   G#      D#   D#   D#7  D#7 
----------------------|----------------------|----------------------|
----4----4----4----4--|----4----4----4----4--|----4----4----4----4--|
----5----5----5----5--|----3----3----5----5--|----3----3----6----6--|
----5----5----6----7--|----5----5----6----6--|----5----5----5----5--|
----------------------|----------------------|----------------------|
----------------------|----------------------|----------------------|


    G#   G#   Am/5-Am/5    D#   D#   Cm   Cm      G#   G#   A#   A#       
----------------------|----------------------|----------------------|---||
----4----4----4----4--|----4----4----4----4--|----4----4----3----3--|---||
----5----5----5----5--|----3----3----5----5--|----5----5----3----3--|---||
----6----6----7----7--|----5----5----5----5--|----6----6----3----3--|---||
----------------------|----------------------|----------------------|---||
----------------------|----------------------|----------------------|---||

hentet på www.guitaren.dk

Comments