Misc Artists - Hammer Holds Chords & Tabs

 

Hammer Holds Chords & Tabs

Misc Artists Chords & Tabs

Version: 1 Type: Tab 0 ratings
1 star 2 stars 3 stars 4 stars 5 stars
comments

Hammer Holds Tab

This is a great tune, this is only my second tabbed song, 
hope you like.





Capo 4.  
INTRO:


|------0--------|------0--------|---------------|---------------|
|----3-------3--|----3-------3--|------3--------|----2---3---2--|
|--2-------2---0|--0-------0---0|----0---------0|----0---0---0--|
|0--------------|---------------|--0---------0--|--2---2---2---2|
|--------4------|2-------0------|--------0h2----|0--------------|
|---------------|---------------|3--------------|---------------|

|------0--------|------0--------|---------------|-------|------------0--|
|----3-------3--|----3-------3--|------3--------|------3|----2---3------|
|--2-------2---0|--0-------0---0|----0-------2p0|----0--|----0---0---0--|
|0--------------|---------------|--0-------0----|--0----|--2---2---2---2|
|--------4------|2-------0------|---------------|-------|0--------------|
|---------------|---------------|3-------2------|3------|---------------|
VERSE.

|------0--------|------0--------|---------------|---------------|
|----3-------3--|----3-------3--|------3--------|----2---3---2--|
|:-2-------2---0|--0-------0---0|----0---------0|----0---0---0--|
|0--------------|---------------|--0---------0--|--2---2---2---2|
|--------4------|2-------0------|--------0h2----|0--------------|
|---------------|---------------|3--------------|---------------|

|------0--------|------0--------|---------------|-------0h2----2|
|----3-------3--|----3-------3--|------3-------3|----3-----3----|
|--2-------2---0|--0-------0---0|----0-------0--|--2---2-----2--|
|0--------------|---------------|--0-------2----|0--------------|
|--------4------|2-------0------|--------0------|---------------|
|---------------|---------------|3--------------|---------------|

|------0--------|------0--------|---------------|---------------|
|----3-------3--|----3-------3--|------3--------|----2---3---2--|
|--2-------2---0|--0-------0---0|----0---------0|----0---0---0--|
|0--------------|---------------|--0---------0--|--2---2---2---2|
|--------4------|2-------0------|--------0h2----|0--------------|
|---------------|---------------|3--------------|---------------|

|------0--------|------0--------|---------------|-------0h2----2|
|----3-------3--|----3-------3--|----3-------3--|----3-----3----|
|--2-------2---0|--0-------0---0|----0-------0--|--2---2-----2--|
|0--------------|---------------|--0---0---2---2|0--------------|
|--------4------|2-------0------|--------0------|---------------|
|---------------|---------------|3--------------|---------------|
CHORUS.
[ Tab from: http://www.guitartabs.cc/tabs/m/misc_artists/hammer_holds_tab.html ]
|------0--------|------0--------|---------------|-------0h2----2|
|----3-------3--|----3-------3--|------3-------3|----3-----3----|
|--2-------2---0|--0-------0---0|----0-------0--|--2---2-----2--|
|0--------------|---------------|--0-------2----|0--------------|
|--------4------|2-------0------|--------0------|---------------|
|---------------|---------------|3--------------|---------------|

|------0--------|------0--------|---------------|---------------|
|----3-------3--|----3-------3--|------3--------|------3-----2--|
|--2-------2---0|--0-------0---0|----0-------2p0|----0-------0--|
|0--------------|---------------|--0-------0----|--0-------2---2|
|--------4------|2-------0------|---------------|--------0------|
|---------------|---------------|3-------2------|3--------------|

|------0--------|------0--------|---------------|-------0h2----2|
|----3-------3--|----3-------3--|------3-----3--|----3-----3----|
|--2-------2---0|--0-------0---0|----0-------0--|--2---2-----2--|
|0--------------|---------------|--0-------2---2|0--------------|
|--------4------|2-------0------|--------0------|---------------|
|---------------|---------------|3--------------|---------------|

|------0--------|------0--------|---------------|-------0h2----2|
|----3-------3--|----3-------3--|------3-----3--|----3-----3----|
|--2-------2---0|--0-------0---0|----0-------0--|--2---2-----2--|
|0--------------|---------------|--0-------2---2|0--------------|
|--------4------|2-------0------|--------0------|---------------|
|---------------|---------------|3--------------|---------------|





|------0--------|------0--------|---------------|-------0h2----2|
|----3-------3--|----3-------3--|------3-----3--|----3-----3----|
|--2-------2---0|--0-------0---0|----0-------0--|--2---2-----2--|
|0--------------|---------------|--0-------2---2|0--------------|
|--------4------|2-------0------|--------0------|---------------|
|---------------|---------------|3--------------|---------------|

OUTRO.

|------0--------|------0--------|---------------|
|----3-------3--|----3-------3--|------3-------3|
|--2-------2---0|--0-------0---0|----0-------0--|
|0--------------|---------------|--0-------2----|
|--------4------|2-------0------|--------0------|
|---------------|---------------|3--------------|

|------0--------|------0--------|---------------|----0-0-0h2----|
|----3-------3--|----3-------3--|---------------|--3---3-3------|
|--2-------2---0|--0-------0---0|----------0----|2-----2-2------|
|0--------------|---------------|--0---------0-0|--------0------|
|--------4------|2-------0------|----0h2-0------|---------------|
|---------------|---------------|3--------------|---------------|

Comments