Misc Artists - Graham Parsons Song Chords & Tabs

 

Graham Parsons Song Chords & Tabs

Misc Artists Chords & Tabs

Version: 1 Type: Tab 0 ratings
1 star 2 stars 3 stars 4 stars 5 stars
comments

Graham Parsons Song Tab

||------------------|-----------------|-----------------|-------------------||
||o-----------------|-----------------|-----------------|------------------o||
||------------------|-----------------|-----------------|-------------------||
||----9-------9-----|---9-------9-----|---6-------6-----|---9-------9-------||
||o-7-----9-7-----9-|-7-----9-7-----9-|-4-----6-4-----6-|-7-----9-7-----9--o||
||------7-------7---|-----7-------7---|-----4-------4---|-----7-------7-----||


|-----------------|-----------------|-----------------|------------------
|-----------------|-----------------|-----------------|------------------
|-----------------|-----------------|-----------------|------------------
|---9---6---------|---9---9---9---9-|---9---6---------|---9---9---9---9--
|-7---4-----6---9-|-7---7---7---7---|-7---4-----6---9-|-7---7---7---7----
|---------4---7---|-----------------|---------4---7---|------------------

[ Tab from: http://www.guitartabs.cc/tabs/m/misc_artists/graham_parsons_song_tab.html ]
Comments