Misc Artists - Give Me That Chords & Tabs

 

Give Me That Chords & Tabs

Misc Artists Chords & Tabs

Version: 2 Type: Tab 0 ratings
1 star 2 stars 3 stars 4 stars 5 stars
comments

Give Me That Tab

a kapo is on the 3rd fret

e-0--5--6--0----
b--5--0--0--6---
g---0--0--0--0---  do this 4 times
d---------------
a---------------
e---------------
[ Tab from: http://www.guitartabs.cc/tabs/m/misc_artists/give_me_that_tab_ver_2.html ]
body
e-6--   ----     ----   ----   ----   ---  ----    --5--
b-5--   --6--    --5--  --6--  --5--  ---  --5--   ---- 
g---    --5--    --5--  --5--  --5--  ---  --5--   ----
d---    ----     ----   ----   ----   -5-- ----    --5--
a-6--   --6--    ----   --4--  ----   -6-- ----    --6-- 
e-6--   --6--    ----   ----   ----   -5-- ----    ----


chorus 
--6--  ----
--5--  --6--
----   --5--
----   ----
--6--  --6--
--6--  --6--   then after you play this ....play all of it over.
Comments