Misc Artists - Demons Chords & Tabs

 

Demons Chords & Tabs

Misc Artists Chords & Tabs

Version: 1 Type: Tab 0 ratings
1 star 2 stars 3 stars 4 stars 5 stars
comments

Demons Tab

hey i made this up. No distortion, but palm if you would like, it 
doesnt matter much.
hope you like it.

DEMONS

---------------------------------------------------------xxxx---------
---------------------------------------------------------xxxx---------
---------------------------------------------------------xxxx---------
-----------------------------------------9-10-9-8-9-10-9-xxxx---------
-----------------------------------------9-10-9-8-9-10-9-xxxx---------
---0-0-0-12--0-0-0-13--0-0-0-5-6-7-0-9---9-10-9-8-9-10-9-xxxx---------
[ Tab from: http://www.guitartabs.cc/tabs/m/misc_artists/demons_tab.html ]


----------------------------------------------------------------------
----------------------------------------------------------------------
----------------------------------------------------------------------
----------------------------------------------------------------------
----------------------------------------------------------------------
---0-0-0-9--0-0-0-8--0-0-0-9--0-0-0-8-7-13----------------------------
   palm fom here to.................here.

If you dont like it..... well to bad, stick your finger back up your butt
Comments