Misc Artists - D Strum Chords & Tabs

 

D Strum Chords & Tabs

Misc Artists Chords & Tabs

Version: 1 Type: Chords 0 ratings
1 star 2 stars 3 stars 4 stars 5 stars
comments

D Strum Chords

|---------------------------------------|
|D strum  By:  Brian Mckee              |
|---------------------------------------|


Play it as a D chord. But change where it changes. You can mess around and strum it
how you like it. Variations are the point!

[ Tab from: http://www.guitartabs.cc/tabs/m/misc_artists/d_strum_crd.html ]
E-------2-----2&3-----2-----0-------|
B-------3------3------3-----3-------|
G-------2------2------2-----2-------|
D-------0------0------0-----0-------|
A-----------------------------------|
E-----------------------------------|


			

			Copyright© 2002 Brian Mckee All rights reserved.
Comments