Misc Artists - Cool Dude Chords & Tabs

 

Cool Dude Chords & Tabs

Misc Artists Chords & Tabs

Version: 1 Type: Tab 0 ratings
1 star 2 stars 3 stars 4 stars 5 stars
comments

Cool Dude Tab

Part 1

e-----0-----0---0-----0-----0---0-----0-----0---0
B------------------------------------------------
G---7----7----------6----6----------4----4-------
D------------------------------------------------
A------------------------------------------------
E-7-----7-7---7---5-----5-5---5---3-----3-3---3--

e-----0-----0---0
B----------------
G---3----3-------
D----------------
A----------------
E-2-----2-2---2--

Part 2
[ Tab from: http://www.guitartabs.cc/tabs/m/misc_artists/cool_dude_tab.html ]
e-----7-----7---7-----5-----5---5-----3-----3---3
B------------------------------------------------
G---7----7----------6----6----------4----4-------
D------------------------------------------------
A------------------------------------------------
E-7-----7-7---7---5-----5-5---5---3-----3-3---3--

e-----2-----2---2
B----------------
G---3----3-------
D----------------
A----------------
E-2-----2-2---2--

Chords- Chorus

e--------------------
B-3----3----1--1----2
G-2------------3-----
D-----------2--2----2
A-2----1----3--3-----
E--------------------

Chords- Part1 & 2
e-----------------
B-----------------
G-7----6----4----3
D-0----7----5----4
A------7----5----4
E-7----5----3----2
Comments