Misc Artists - Clubbed To Death Chords & Tabs

 

Clubbed To Death Chords & Tabs

Misc Artists Chords & Tabs

Version: 1 Type: Tab 0 ratings
1 star 2 stars 3 stars 4 stars 5 stars
comments

Clubbed To Death Tab

                               Clubbed to death                                 


                                                     Sir Edward Elgar/Rob Dougan
Track 1



                                                                       
E||---------------------|--6-------------------|--8-------------------|
B||-----------8---------|------------8---------|------------7---------|
G||------7---------7----|-------7---------7----|-------7---------7----|
D||---------------------|----------------------|----------------------|
A||---------------------|----------------------|----------------------|
E||---------------------|----------------------|----------------------|


                                                                     
--5-------------------|---------------------|--10---------6---------|
------------7---------|-----------8---------|-----------------------|
-------7---------7----|------7---------7----|--------7---------7----|
----------------------|---------------------|-----------------------|
----------------------|---------------------|-----------------------|
----------------------|---------------------|-----------------------|


                                                                     
--6-------------------|--5---------8---------|----------------------|
------------4---------|-------4---------4----|------------8---------|
-------5---------5----|----------------------|-------7---------7----|
----------------------|----------------------|--0-------------------|
----------------------|----------------------|----------------------|
----------------------|----------------------|----------------------|

[ Tab from: http://www.guitartabs.cc/tabs/m/misc_artists/clubbed_to_death_tab.html ]
                                                                               
--6---------10----------|--15----------------------|--11----------15----------|
-------8----------11----|--------------11----------|--------11----------11----|
------------------------|--------12----------12----|--------------------------|
------------------------|--------------------------|--------------------------|
------------------------|--------------------------|--------------------------|
------------------------|--------------------------|--------------------------|


                                                      
--15----------------------|--10----------13----------|
--------------12----------|--------12----------12----|
--------12----------12----|--------------------------|
--------------------------|--------------------------|
--------------------------|--------------------------|
--------------------------|--------------------------|


                                                                              
--13----------------13----|--11----------------11----|--10-------------------|
--------------13----------|--------------13----------|-------------8---------|
--------12----------------|--------12----------------|--------7---------7----|
--------------------------|--------------------------|-----------------------|
--------------------------|--------------------------|-----------------------|
--------------------------|--------------------------|-----------------------|


                                                                     
--6-------------------|--6--------------6----|--5--------------2----|
------------8---------|------------4---------|------------3---------|
-------7---------7----|-------5--------------|-------5--------------|
----------------------|----------------------|--0-------------------|
----------------------|----------------------|----------------------|
----------------------|----------------------|----------------------|


                                                                         
--3-------------------|--3---------6---------|--10----------15----------|
-----------------3----|-------3---------8----|--------11----------15----|
------------3---------|----------------------|--------------------------|
-------5--------------|----------------------|--------------------------|
----------------------|----------------------|--------------------------|
--3-------------------|----------------------|--------------------------|


                            
--18----------22----------||
--------20----------23----||
--------------------------||
--------------------------||
--------------------------||
--------------------------||


Comments