Misc Artists - Blues Chords & Tabs

 

Blues Chords & Tabs

Misc Artists Chords & Tabs

Version: 2 Type: Tab 0 ratings
1 star 2 stars 3 stars 4 stars 5 stars
comments

Blues Tab

   
Title: Blues
   BY: David Carrigg

   /=slide
   p=pull off
   h=hammer

intro:
|------------2---2---1---0--------------------|
|-----3h4p0--3---3---2---1---3-------2--------|
|-3/5----------0---0---0-----1-----1-------1--|
|----------------------------2---2-------2----|
|----------------------------3---------3------|
|---------------------------------------------|
[ Tab from: http://www.guitartabs.cc/tabs/m/misc_artists/blues_tab_ver_2.html ]
main rift:
|------------------------------------------------------------------------------------|
|------------------------------------------------------------------------------------|
|--------------------------------------------------------------2-2-3-2--2-2-3-2------|
|-------------------2-2-3-2-4-3-2-3----------------------------0-0-0-0--0-0-0-0------|
|-2-2-3-2--2-2-3-2--o-o-o-o-o-o-o-o----------2-2-3-2--2-2-3-2------------------------|
|-0-o-o-o--o-o-o-o---------------------------o-o-o-o--o-o-o-o------------------------|
Repeat for however many times you want
HAVE FUN
Comments