Misc Artists - Awosme Song I Made Up Chords & Tabs

 

Awosme Song I Made Up Chords & Tabs

Misc Artists Chords & Tabs

Version: 1 Type: Tab 0 ratings
1 star 2 stars 3 stars 4 stars 5 stars
comments

Awosme Song I Made Up Tab

This is a song i made up, its made for two guitars.    

Part1 4x
Gtr.1
e----------------|----------------|----------------|----------------|
b----------------|----------------|----------------|----------------|
g----4-----4-----|----4-----4-----|----4-----4-----|4---4---4---4---|
d------2-----2---|------2-----2---|------2-----2---|--2---2---2---2-|
a--2-----------0-|--2-----------0-|--2-----------0-|----------------|
e0---------------|0---------------|0---------------|----------------|
 1 + 2 + 3 + 4 +  1 + 2 + 3 + 4 +  1 + 2 + 3 + 4 +  1 + 2 + 3 + 4 + 
[ Tab from: http://www.guitartabs.cc/tabs/m/misc_artists/awosme_song_i_made_up_tab.html ]
Gtr.2
e----------------|----------------|----------------|----------------|
b12----12----12--|12----12----12--|12----12----12--|12----12----12--|
g--12----12----12|--12----12----12|--12----12----12|--12----12----12|
d----12----12----|----12----12----|----12----12----|----12----12----|
a----------------|----------------|----------------|----------------|
e----------------|----------------|----------------|----------------|
 1 + 2 + 3 + 4 +  1 + 2 + 3 + 4 +  1 + 2 + 3 + 4 +  1 + 2 + 3 + 4 +

Part2 2x
Gtr. 1
e0---0---------0-|------------0-0-|0---0---------0-|------------0-0-|
b--1-----1-----2-|------------2-1-|--1-----1-----2-|------------2-1-|
g------0---0-----|----------------|------0---0-----|----------------|
d------------2---|----------------|------------2---|----------------|
a----------------|----------------|----------------|----------------|
e----------------|----------------|----------------|----------------|
 1 + 2 + 3 + 4 +  1 + 2 + 3 + 4 +  1 + 2 + 3 + 4 +  1 + 2 + 3 + 4 +

Gtr. 2
e----------------|----------------|----------------|----------------|
b----------------|----------------|----------------|----------------|
g----------------|----------------|----------------|----------------|
d--10------------|--------------10|--10------------|--------------10|
a----12--12----12|------------12--|----12--12----12|------------12--|
e12----10--1012--|----------------|12----10--1012--|----------------|
 1 + 2 + 3 + 4 +  1 + 2 + 3 + 4 +  1 + 2 + 3 + 4 +  1 + 2 + 3 + 4 +

repeat a few times 
jmsrebels@yahoo.com
Comments