Misc Artists - 20 Second Blues Chords & Tabs

 

20 Second Blues Chords & Tabs

Misc Artists Chords & Tabs

Version: 1 Type: Tab 1 rating
1 star 2 stars 3 stars 4 stars 5 stars
comments

20 Second Blues Tab

This is a little song i made up

[ Tab from: http://www.guitartabs.cc/tabs/m/misc_artists/20_second_blues_tab.html ]
E------9---7------9------9---7-----------------------------------
B--9-----------9-----------------9-7-----------------------------
G-------------------------------------9---8--6----------------------9h11p9---
D-----------------------------------------------9---11----9---11---------
                                                       pause at first 11
E--------------------------------------9---7------9-----9 7------7--------
B---------------------------------7--9---------9--------------9-----9--7--
G------------------------6---8--9-----------------------------------------
D---11---9---11------9--------------------------------------------------
  quick rest    pause
E----------------------------------------
B----------------------------------------
G-9--8--6-----4/6lr---4/6lr---------------------------
D----------------------------------------

             lr-let ring

If played right it should be 20 seconds long and very smooth.
It's really pretty easy.    ENJOY!!!!!!!!!  (I'M WORKIN ON ANOTHER ONE)
Comments