Misc Artists - 1 Song Plus 1 Song Chords & Tabs

 

1 Song Plus 1 Song Chords & Tabs

Misc Artists Chords & Tabs

Version: 1 Type: Tab 0 ratings
1 star 2 stars 3 stars 4 stars 5 stars
comments

1 Song Plus 1 Song Tab

These are two songs I found on this site, But I was scanning songs to
think of a song for a couple of my friends and I to play.  I saw these
two songs and I liked both so I added them together.  Cya!!

This Is The Intro:

E --------------------3-----------------------------------------------
B ---------3-----3-------3--------------------------------------------
G --------------------------0-----------------------------------------
D ------0-----0----0--------------------------------------------------
A --------------------------------------------------------------------
E ---3----------------------------------------------------------------

E ---------------------3----------------------------------------------
B ---------3-----3--------3-------------------------------------------
G ---------------------------0----------------------------------------
D ------2-----2-----2-------------------------------------------------
A ---3----------------------------------------------------------------
E --------------------------------------------------------------------

E ---------------------2----------------------------------------------
B ---------3-----3--------3-------------------------------------------
G ------2--------------------2----------------------------------------
D ---0--------0-----0-------------------------------------------------
A --------------------------------------------------------------------
E --------------------------------------------------------------------

E ---------------------0----------------------------------------------
B ---------1-----1--------1-------------------------------------------
G ---------------------------0----------------------------------------
D ------2-----2-----2-------------------------------------------------
A ---3----------------------------------------------------------------
E --------------------------------------------------------------------

This Is What You Play During the Chorus: Repeat As Necessary
(Its Up to You How You Strum, It Sounds Good With About Anything)

E ---3-------3-------2-------0-------------------------------------------
B ---3-------3-------3-------1-------------------------------------------
G ---0-------0-------2-------0-------------------------------------------
D ---0-------2-------0-------2-------------------------------------------
A ---2-------3---------------3-------------------------------------------
E ---3-------------------------------------------------------------------

This Is What You Play During the Verses: Repeat As Necessary
[ Tab from: http://www.guitartabs.cc/tabs/m/misc_artists/1_song_plus_1_song_tab.html ]
E ---------------0--------------------------------------------------
B ------------------0---------------1---------------3---------------
G ------------0--------0---------------0---------------0------------
D ---------2--------------2---------------2---------------4---------
A ------2----------------------3---------------5---------------3----
E ---0--------------------------------------------------------------

E ---------------------------------------------2---------------------
B ---1---------------1----------------------1--------------------------
G ------0---------------0----------------2-----------------------------
D ---------2---------------0----------0--------------------------------
A --------------2------------------2----------------------------------
E ------------------------------------------------------------------

This Is The Ending or Closing:  
You Play the Intro Once and Then Play This

E ---------------------3-----------------------------------------------
B ---------3-----3--------3--------------------------------------------
G ---------------------------0-----------------------------------------
D ------0-----0-----0--------------------------------------------------
A ---------------------------------------------------------------------
E ---3-----------------------------------------------------------------

E ---------------------3-----------------------------------------------
B ---------3-----3--------3--------------------------------------------
G ---------------------------0-----------------------------------------
D ------2-----2-----2-------------------------------------------------- 
A ---3-----------------------------------------------------------------
E ---------------------------------------------------------------------

E ---------------------2-----------------------------------------------
B ---------3-----3--------3--------------------------------------------
G ------2--------------------2-----------------------------------------
D ---0--------0-----0--------------------------------------------------
A ---------------------------------------------------------------------
E ---------------------------------------------------------------------


E ---------------------3--2-------3------------------------------------
B ---------1----------------------3------------------------------------
G ------------------0-------------0------------------------------------
D ------2-----2--0----------------0------------------------------------
A ---3----------------------------2------------------------------------
E --------------------------------3------------------------------------
Comments