Misc - You Dont Know Jack Chords & Tabs

 

You Dont Know Jack Chords & Tabs

Misc Chords & Tabs

Version: 1 Type: Tab

You Dont Know Jack Tab

this is the tab from the popular trivia game- kicks ass. email me at quicksilver3987@yahoo.com

this song is played on an electric guitar, really fuzzy and distorted and LOUD
oh yeah most acoustic or classical guitars cant play this cause they dont have anough frets
here it is

|------------------------------------------------------|
|------------------------------------------------------|
|------------------------------------------------------|
|------------------------------------------------------|
|------------------------------------------------------|
|--------6---------9--------11----------18p6------|
[ Tab from: http://www.guitartabs.cc/tabs/m/misc/you_dont_know_jack_tab.html ]
|------------------------------------------------------------------------|
|------------------------------------------------------------------------|
|------------------------------------------------------------------------|
|-----10----13----15----10----8----6----8--10--8-----------------|
|-----10----13----15----10----8----6----8--10--8-----------------|
|-----8------11----13----8-----6----4----6---8---6-----------------|

|------------------------------------------------------------------------|
|------------------------------------------------------------------------|
|------------------------------------------------------------------------|
|-----10----13----15------20----------------------------------------|
|-----10----13----15------20----------------------------------------|
|-----8------11----13------18-----20--18--20--h22p20----------|

repeat 
                /
             //

             \\
                 \

~COLTON