Misc - Wwf Mankind Chords & Tabs

 

Wwf Mankind Chords & Tabs

Misc Chords & Tabs

Version: 1 Type: Tab 0 ratings
1 star 2 stars 3 stars 4 stars 5 stars
comments

Wwf Mankind Tab

e :------------------------|      
B :------------------------|
G :--5-5-5-----------------|
D :--5-5-5----7-7--5-5-5---|
A :--3-3-3----7-7--5-5-5---|
E :-----------5-5--3-3-3---|    (do this twice.)
[ Tab from: http://www.guitartabs.cc/tabs/m/misc/wwf_mankind_tab.html ]
Then 

e :------------------------|      
B :------------------------|
G :------------------------|
D :--5-5-----3-3-3---------|
A :--5-5-----3-3-3---------|
E :--7-7-----1-1-1---------|

Thats it. Just repeat.
Comments