Misc - Wwe Undertaker Chords & Tabs

 

Wwe Undertaker Chords & Tabs

Misc Chords & Tabs

Version: 1 Type: Tab 1 rating
1 star 2 stars 3 stars 4 stars 5 stars
comments

Wwe Undertaker Tab

World Wrestling Entertainment
Song:Your Gonna Pay/ The Undertaker's theme
Artist: Jim Johnston
Tabbed By:Tylebow A.K.A: Robert Tyler

"DEAD MAN WALKING"

Verse. starts with " youve done it now...."
E--------------------------------------------------------------------
B--------------------------------------------------------------------
G--------------------------------------------------------------------
D------2--4-4--------------------------------------------------------
A------0--2-2----2--4--7-2--2----------------------------------------
E----------------0--2--5-0--0----------------------------------------
(repeat until chorus)
[ Tab from: http://www.guitartabs.cc/tabs/m/misc/wwe_undertaker_tab.html ]
Chorus. "your gonna pay, your gonna pay"
(let ring)
E--------------------------------------------------------------------
B--------------------------------------------------------------------
G-------------------------------/dont let ring\----------------------
D------2-4-4-4-2-4-4-4-2-4-4-4---2-----------------------------------
A------0-2-2-2-0-2-2-2-0-2-2-2---0--2--------------------------------
E-----------------------------------0--------------------------------

If you wanna solo dunring the song use this scale (I think)lol

E---------------------------------12-15-----15-17--------------------
B---------------------------12-14-----------------15-17---17-18------
G---------------------12-14-------------------------------------17-18
D--------------12-14-------------------------------------------------
A--------12-14-------------------------------------------------------
E--12-15-------------------------------------------------------------
Comments