Misc - Wild Wood Flower Chords & Tabs

 

Wild Wood Flower Chords & Tabs

Misc Chords & Tabs

Version: 1 Type: Tab 0 ratings
1 star 2 stars 3 stars 4 stars 5 stars
comments

Wild Wood Flower Tab

Standard Tuneing 
Wild Wood Flower in the key of G
Repeat 2x

[ Tab from: http://www.guitartabs.cc/tabs/m/misc/wild_wood_flower_tab.html ]
E-----------------------------1--------------------------------------
A--2-3----------2-3-2-0-0h2-0----------------------------------------
D------0--0h2--------------------------------------------------------
G-------------0------------------------------------------------------
B--------------------------------------------------------------------
E--------------------------------------------------------------------





Then


E----------------------------------------------------2-3-------------
A-------------------------0h2--0h2---0h2---2-0-0h2-0-----------------
G-------------0-1----0-------0-----0-----0---------------------------
D---0-1/4-1-0------0-------------------------------------------------
B--------------------------------------------------------------------
E--------------------------------------------------------------------
Comments