Misc - Westminister Chime Chords & Tabs

 

Westminister Chime Chords & Tabs

Misc Chords & Tabs

Version: 1 Type: Tab 0 ratings
1 star 2 stars 3 stars 4 stars 5 stars
comments

Westminister Chime Tab

Title:     West Minister Chime
Artist:    who knows
Tabbed by: Phillip Mothershed  a.k.a Leviathan
E-mail:    Ogopogo10@yahoo.com

This was previously tabbed out as "Clock striking the hour." I never could remember the last few notes of this tune, but thanks to all the e-mails, we fixed this tab. 

[ Tab from: http://www.guitartabs.cc/tabs/m/misc/westminister_chime_tab.html ]
--5---9---7---------5---7---9--------9--5--7------
--------------5-----------------10----------------
---------------------------------------------9----
--------------------------------------------------
--------------------------------------------------
-------------------------------------------------- (and then it just repeats)


There's an easier way to play the last part, it's like this:
--9--5--7--0---
---------------
---------------
---------------
---------------
--------------- 
For some reason I prefer playing the 9 on the G string, but most people prefer the open E.


Here's the credits, for those that helped me out:
HPotter2@aol.com
XPBBunny015x@aol.com
bdowner@indiana.edu
Freakylizzard09@ aol.com
mickthompson69@hotmail.com
cactusgarden12@yahoo.com
ACHSCO2005@aol.com 
Comments