Misc - Warmup Chords & Tabs

 

Warmup Chords & Tabs

Misc Chords & Tabs

Version: 1 Type: Tab 0 ratings
1 star 2 stars 3 stars 4 stars 5 stars
comments

Warmup Tab

-------------------------------------------------------------
-------------------------------------------------------------
--------------7----------------------------------------------
--9--5---5--9---9--7--5----------5---7-7/8--8--7--5----------
-------5-----------------5--6--7--------------------7-5------
--------------------------------------------------------7--3-

[ Tab from: http://www.guitartabs.cc/tabs/m/misc/warmup_tab.html ]
-------------------------------------------------------------
-------------------------------------------------------------
-------------------------------------------------------------
------5-5---5-5-----------------------9-7-5------------------
--5-7-----7-----7-5-5-6-7-5-7-5-7-7/9-------7-5--------------
------------------------------------------------7-3----------


alright everyone i go to church and this is just a kick off that 
i play beforei start singing the song
Comments