Misc - Warm Up Chords & Tabs

 

Warm Up Chords & Tabs

Misc Chords & Tabs

Version: 1 Type: Tab 0 ratings
1 star 2 stars 3 stars 4 stars 5 stars
comments

Warm Up Tab

Submited By: Darren (s3_17@hotmail.com)

E||----------------------------------|
B||----------------------------------|
G||--------------------------1-2-3-4-|
D||------------------1-2-3-4---------|
A||----------1-2-3-4-----------------|
E||--1-2-3-4-------------------------|


                    
----------1-2-3-4-||
--1-2-3-4---------||
------------------||
------------------||
------------------||
------------------||

or
[ Tab from: http://www.guitartabs.cc/tabs/m/misc/warm_up_tab.html ]
E||----------------------------------|
B||----------------------------------|
G||--------------------------1-2-3-4-|
D||----------1-2-3-4-----------------|
A||------------------1-2-3-4---------|
E||--1-2-3-4-------------------------|


                                    
--------------------------1-2-3-4-||
----------1-2-3-4-----------------||
------------------1-2-3-4---------||
--1-2-3-4-------------------------||
----------------------------------||
----------------------------------||

Comments