Misc - Warm Up Exercises Chords & Tabs

 

Warm Up Exercises Chords & Tabs

Misc Chords & Tabs

Version: 1 Type: Tab 0 ratings
1 star 2 stars 3 stars 4 stars 5 stars
comments

Warm Up Exercises Tab

E||--17-15-14-12-------------------------------------|
B||--------------17-15-13-12-------------------------|
G||--------------------------17-16-12-11-------------|
D||--------------------------------------17-16-14-12-|
A||--------------------------------------------------|
E||--------------------------------------------------|


                                     
------------------------------------|
------------------------------------|
------------------------------------|
------------------------------------|
--17-15-14-12-----------------------|
--------------17-15-14-12-12~-------|


                                                   
--17-15-14-12-------------------------------------|
--------------------------17-15-13-12-------------|
--------------17-16-12-11-------------------------|
--------------------------------------17-16-14-12-|
--------------------------------------------------|
--------------------------------------------------|


                                                                      
--------------------------------------------------|------------------|
--------------------------------------------------|------------------|
--17-16-12-11-------------------------------------|------------------|
--------------------------17-16-14-12-------------|------------------|
--------------17-15-14-12-------------------------|------------------|
--------------------------------------17-15-14-12-|------------------|


                                 
--12--13--16--------------------|
----------------12--13----------|
------------------------14--13--|
--------------------------------|
--------------------------------|
--------------------------------|


                                                     
----------------------------------------------------|
----------------------------------------------------|
----------------------------------------------------|
----------------------------------------------------|
---------------------------12--14-15-14-12--14--12--|
--12--13-16-13-12--13--12---------------------------|

[ Tab from: http://www.guitartabs.cc/tabs/m/misc/warm_up_exercises_tab.html ]
                                                     
----------------------------------------------------|
----------------------------------------------------|
---------------------------13--14-17-14-13--14--13--|
--12--14-15-14-12--14--12---------------------------|
----------------------------------------------------|
----------------------------------------------------|


                                                                          
----------------------------------|--------------------------------------|
----------------------------------|--------------------------------------|
----------------------------------|--------------------------------------|
----------------------------------|--------------------------------------|
-------------------0--------------|--------2--------2--0--3--2--0--------|
--0--1-4-1-0-1--0-----1--1--4--0--|--0--4-----0--4-----------------3--1--|


                                       
--------------------------------------|
--------------------------------------|
--------------------------------------|
--------------------------------------|
--------2--------2--0--3--2--0--------|
--0--4-----0--4-----------------3--1--|


                                       
--0--0--0--0--0--0--1--1--1--1--1--1--|
--------0--------0-----1--0-----------|
-----1--------1-----2--------2--0-----|
--2--------2-----------------------3--|
--------------------------------------|
--------------------------------------|


                                       
--0--0--0--0--0--0--0--0--0--0--0--0--|
--------0--------0-----1--0-----------|
-----1--------1-----2--------2--0-----|
--2--------2-----------------------3--|
--------------------------------------|
--------------------------------------|


                                         
----------------------------------------|
----------------------------------------|
----------------------------------------|
--2--3--2--0--2-------------------------|
---------------------2--3--2--0--2------|
----------------------------------------|


                                                                       
----------------------------------------|--x------------0------------||
----------------------------------------|--3------------0------------||
----------------------------------------|--2------------1------------||
----------------------------------------|--0------------2------------||
----------------------------------------|--x------------2------------||
--4--5--4--1--4------0--1--0--4--0------|--1------------0------------||
Comments