Misc - Warm Up Exercises Chords & Tabs

 

Warm Up Exercises Chords & Tabs

Misc Chords & Tabs

Version: 1 Type: Bass Tab 0 ratings
1 star 2 stars 3 stars 4 stars 5 stars
comments

Warm Up Exercises Bass Tab

G||------------------------------|--------------------------|
D||------------------------------|---------------------2----|
A||----------------0--2-3-0--2-3-|--------------------------|
E||--0--2-3-0--2-3-0-------------|--0--2-3-0--2-3-0---------|


                                                         
-----------------------|-------------------------|------|
------------2----------|-------------2-----------|------|
-----------------------|-------------------------|------|
--0----0---------0--3--|--0--0--0---------0-0-3--|------|


                                                                        
-------------------------|----------------------|----------------------|
-------------------3--2--|--2----2----3----3----|--3----3----6----6----|
-------------------------|----------------------|----------------------|
--0----0--1--1--1--------|----------------------|----------------------|

[ Tab from: http://www.guitartabs.cc/tabs/m/misc/warm_up_exercises_btab.html ]
                                                              
----------------------|--------------------------------------|
----------------------|--------------------------------------|
----------------------|--------------------------------------|
--0----0----0----0----|--0--0--0--0--0--0--1--1--1--1--1--1--|


                                       
--------------------------------------|
--------------------------------------|
--------------------------------------|
--0--0--0--0--0--0--1--1--1--1--1--1--|


                                       
--------------------------------------|
--------------------------------------|
--------------------------------------|
--0--0--0--0--0--0--1--1--1--1--1--1--|


                                                                     
--------------------------------------|-----------------------------|
--2--2--2--2--2--2--3--3--3--3--3--3--|-----------------------------|
--------------------------------------|-----------------------------|
--------------------------------------|--0--------1--------0--------|


                                          
-----------------------------|----------||
-----------------------------|----------||
-----------------------------|----------||
--0--------1--------0--------|----------||
Comments