Misc - Untitled Wtc Song By Jeff Chords & Tabs

 

Untitled Wtc Song By Jeff Chords & Tabs

Misc Chords & Tabs

Version: 1 Type: Tab 0 ratings
1 star 2 stars 3 stars 4 stars 5 stars
comments

Untitled Wtc Song By Jeff Tab











#----------------------------------PLEASE NOTE---------------------------------#
#This file is the author's own work and represents their interpretation of the #
#song. You may only use this file for private study, scholarship, or research. #
#------------------------------------------------------------------------------#





This is an untitled song I came up with after the WTC
disaster. It is played with two gutiars or one, the second guitar
part is included. Put your own twists on the song as you wish.
And pray for all the lives lost in the devistation to America
that occured on Sept. 11, 2001.

Chords used: 

--G------Dadd4-------C--------D
|-3--------2---------0--------2--|
|-3--------3---------3--------3--|
|-0--------0---------0--------2--|
|-0--------0---------x--------0--|
|-x------------------3-----------|
|-3------------------------------|


M.M. = 65
||----3-----3-----3-----3-----3-----|---2-----2-----3-----2-----2---3--|
||o-----3-----3-----3-----3-------3-|-----3-----3-----3-----3----------|
||----------------------------------|----------------------------------|
||----------------------------------|----------------------------------|
||o---------------------------------|----------------------------------|
||--3-----3-----3-----3-----3---3---|-0-----0-----0-----0-----0---0----|


|---0-----3-----0-----3-----3-----|---2-----3-----2-----3-----2-------||
|-----3-----3-----3-----3-------3-|-----3-----3-----3-----3-------3--o||
|---------------------------------|-----------------------------------||
|---------------------------------|-----------------------------------||
|-3-----3-----3-----3-----3---3---|-0-----0-----0-----0-----0---0----o||
|---------------------------------|-----------------------------------||

[ Tab from: http://www.guitartabs.cc/tabs/m/misc/untitled_wtc_song_by_jeff_tab.html ]
||-----3-----3-----3-----3-----3-----|----2-----2-----3-----2-----2---3--|
||o------3-----3-----3-----3-------3-|------3-----3-----3-----3----------|
||-----------------------------------|-----------------------------------|
||-----------------------------------|-----------------------------------|
||o----------------------------------|-----------------------------------|
||--3------3-----3-----3-----3---3---|-0------0-----0-----0-----0---0----|
|
||--^3-------------------------------|-^2--------------------------------|
||o-^3-------------------------------|-^3--------------------------------|
||--^0-------------------------------|-^0--------------------------------|
||--^0-------------------------------|-^0--------------------------------|
||o-^x-------------------------------|-----------------------------------|
||--^3-------------------------------|-----------------------------------|


|----0-----3-----0-----3-----3-----|----2-----3-----2-----3-----2-------||
|------3-----3-----3-----3-------3-|------3-----3-----3-----3-------3--o||
|----------------------------------|------------------------------------||
|----------------------------------|------------------------------------||
|-3------3-----3-----3-----3---3---|-0------0-----0-----0-----0---0----o||
|----------------------------------|------------------------------------||
|
|-^0-------------------------------|-^2---------------------------------||
|-^3-------------------------------|-^3--------------------------------o||
|-^0-------------------------------|-^2---------------------------------||
|-^x-------------------------------|-^0---------------------------------||
|-^3-------------------------------|-----------------------------------o||
|----------------------------------|------------------------------------||


The rest of the song is for you to figure out, I play a
chorus by strumming the chords with the acoustic and then
overdubbing a electric guitar arpeggiating the chords. Anyway,
make the song how you want it.

If you come up with an awsome way to play this or have any
comments or suggestions, E-mail me at Gtrjeffrey@aol.com.

--------------------------------------------------------------------------------
Legend
------

h = hammer-on; p = pull-off; b = bend; r = bend release; / =
slide up/down; [5] = nat. harmonic;  = art. harmonic; ~ =
vibrato; tr = trill; T = tap; TP = trem. picking; PM = palm
muting; | = bar; || = double bar; ||o = repeat start; *|| =
repeat end; *| = double bar (end); : = bar (freetime); d =
tremolo bar dive; u = tremolo bar up; = = hold (bend or tremolo
bar)
--------------------------------------------------------------------------------


** Generated
using Power Tab Editor by Brad Larsen: The Official Power Tab Web Site


Comments