Misc - Two String Blues Chords & Tabs

 

Two String Blues Chords & Tabs

Misc Chords & Tabs

Version: 1 Type: Tab 0 ratings
1 star 2 stars 3 stars 4 stars 5 stars
comments

Two String Blues Tab

*This is not my song, i am just tabbing it*
Tabbed By: Brad Peterson
Standard Tuning
~ = let ring (whole note)

E|-3-1----------0--3-1------3-1-0
B|----3-0--0-1-3------3-0------3-
G|-------------------------------
D|-------------------------------
A|-------------------------------
E|-------------------------------
[ Tab from: http://www.guitartabs.cc/tabs/m/misc/two_string_blues_tab.html ]
E|----0-3----0-3--3-1-----3-1----
B|-1-3----1-3--------3-0-----3-0-
G|-------------------------------
D|-------------------------------
A|-------------------------------
E|-------------------------------

E|--0-3-----0-3---3-1-----3~-----
B|-3-1---1-3---------3-0-----1~--
G|-------------------------------
D|-------------------------------
A|-------------------------------
E|-------------------------------


then repeat

[END!]
Comments