Misc - Twinkle Twinkle Little Star Chords & Tabs

 

Twinkle Twinkle Little Star Chords & Tabs

Misc Chords & Tabs

Version: 1 Type: Tab 1 rating
1 star 2 stars 3 stars 4 stars 5 stars
comments

Twinkle Twinkle Little Star Tab

Twinkle Twinkle Little Star
By: TimsFender (Tim Cush)
Standard Tuning

E|-----------------------------------------------|
B|-----------------------------------------------|
G|-----------------------------------------------|
D|-----------------------------------------------|
A|-3--3--10--10--12--12--10--8--8--7--7--5--5--3-|
E|-1--1--8---8---10--10--8---6--6--5--5--3--3--1-|
[ Tab from: http://www.guitartabs.cc/tabs/m/misc/twinkle_twinkle_little_star_tab.html ]
E|------------------------------------------------|
B|------------------------------------------------|
G|------------------------------------------------|
D|------------------------------------------------|
A|-10--10--8--8--7--7--5----10--10--8--8--7--7--5-|
E|-8---8---6--6--5--5--3----8---8---6--6--5--5--3-|

E|-----------------------------------------------|
B|-----------------------------------------------|
G|-----------------------------------------------|
D|-----------------------------------------------|
A|-3--3--10--10--12--12--10--8--8--7--7--5--5--3-|
E|-1--1--8---8---10--10--8---6--6--5--5--3--3--1-|

This is a chorded version in a lower key that most people would play it.
 
Comments