Misc - Turkey Song Chords & Tabs

 

Turkey Song Chords & Tabs

Misc Chords & Tabs

Version: 1 Type: Tab 0 ratings
1 star 2 stars 3 stars 4 stars 5 stars
comments

Turkey Song Tab

   
Song:         The Turkey Song
Artist:       Solmund & Mulder
Cd:           Solmund & Mulder
Tabbed For:   Acoustic/Electric Guitar
Tabbed By:    Tim Fehr

    This is an old foggy song so most people wouldn't know it. I had 
To get the original from a cassette (yeah, it's an oldie). But this 
Song is fairly simple and sounds good and as a perk it's almost even
Funny.

    I know some of you die hard Tim Fehr fans are wondering why I'm 
Not putting the chords up as I always have done, and the answer is 
Because I already do in the tabbing. Yeah I know I'm lazy but I don't 
Really care.
[ Tab from: http://www.guitartabs.cc/tabs/m/misc/turkey_song_tab.html ]
Intro:
  G                 G                 Am7               D
E---------3-------|---------3-------|---------3-------|---------2-------|
B-----0-----0---0-|-----0-----0---0-|-----1-----1---1-|-----3-----3---3-|
G---0---0-----0---|---0---0-----0---|---2---2-----2---|---2---2-----2---|
D-----------------|-----------------|-----------------|-0---------------|
A-----------------|-2---------------|-0---------------|-----------------|
E-3---------------|-----------------|-----------------|-----------------|
                          Hm Hm Hm Hm Hmmmmmmmm…    Waooo     Hm Hm Hm Hm  
  G                 Em                Am7               D
E---------3-------|---------0-------|---------3-------|---------2-------|
B-----0-----0---0-|-----0-----0---0-|-----1-----1---1-|-----3-----3---3-|
G---0---0---------|---0---0-----0---|---2---2-----2---|---2---2-----2---|
D-----------------|-----------------|-----------------|-0---------------|
A-----------------|-----------------|-0---------------|-----------------|
E-3-----------2---|-0---------------|-----------------|-----------------|
   Hmmmmmm…               Hm Hm Hm Hm Hmmmmmmm…    Waooo      Hm Hm Hm Hm
  G       C D  C G  G G D Em   C                 D                 B7  
E------------------|-------------------0-----0-|---------2-------|---------2-------|
B-----0---1-3--1-0-|---------------1-----1-----|-----3-----3---3-|-----0-----0---0-|
G---0---0-0-2--0-0-|-------------0---0-----0---|---2---2-----2---|---2---2-----2---|
D---------2-0--2-0-|---------------------------|-0---------------|-----------------|
A---------3-0--3-2-|-----0-2---3---------------|-----------------|-2---------------|
E-3----------------|-3-3-----------------------|-----------------|-----------------|
  Hmmmmmm…          Hm Hm Hm Hm Hmmmmmmm…    Waooo     Hm Hm Hm Hm Hmmmmmmmmmmm…
  Em                Am7               D                 G       C D  C G
E---------0-------|---------3-------|---------2-------|------------------|
B-----0-----0---0-|-----1-----1---1-|-----3-----3---3-|-----0---1-3--1-0-|
G---0---0-----0---|---2---2-----2---|---2---2-----2---|---0---0-0-2--0-0-|
D-----------------|-----------------|-0---------------|---------2-0--2-0-|
A-----------------|-0---------------|-----------------|---------3-0--3-2-|
E-0---------------|-----------------|-----------------|-3----------------|
 Mmm   Hm Hm Hm Hm  Hmmmmmmmmmm…  Waooo     Hm Hm Hm Hm Hmmmmm… 
  G                 G                 Am7               D
E---------3-------|---------3-------|---------3-------|---------2-------|
B-----0-----0---0-|-----0-----0---0-|-----1-----1---1-|-----3-----3---3-|
G---0---0-----0---|---0---0-----0---|---2---2-----2---|---2---2-----2---|
D-----------------|-----------------|-----------------|-0---------------|
A-----------------|-2---------------|-0---------------|-----------------|
E-3---------------|-----------------|-----------------|-----------------|
                          If God can love Turkeys…              God can love
  G                 Em                Am7               D
E---------3-------|---------0-------|---------3-------|---------2-------|
B-----0-----0---0-|-----0-----0---0-|-----1-----1---1-|-----3-----3---3-|
G---0---0---------|---0---0-----0---|---2---2-----2---|---2---2-----2---|
D-----------------|-----------------|-----------------|-0---------------|
A-----------------|-----------------|-0---------------|-----------------|
E-3-----------2---|-0---------------|-----------------|-----------------|
  You.                     You are a Turkey.                  But I am one 
  G       C D  C G  G G D Em   C                 D                 B7
E------------------|-------------------0-----0-|---------2-------|---------2-------|
B-----0---1-3--1-0-|---------------1-----1-----|-----3-----3---3-|-----0-----0---0-|
G---0---0-0-2--0-0-|-------------0---0-----0---|---2---2-----2---|---2---2-----2---|
D---------2-0--2-0-|---------------------------|-0---------------|-----------------|
A---------3-0--3-2-|-----0-2---3---------------|-----------------|-2---------------|
E-3----------------|-3-3-----------------------|-----------------|-----------------|
  Too.             And so if your lonely.   Waooo      Remember the truth.
  Em                Am7               D                 G       C D  C G
E---------0-------|---------3-------|---------2-------|------------------|
B-----0-----0---0-|-----1-----1---1-|-----3-----3---3-|-----0---1-3--1-0-|
G---0---0-----0---|---2---2-----2---|---2---2-----2---|---0---0-0-2--0-0-|
D-----------------|-----------------|-0---------------|---------2-0--2-0-|
A-----------------|-0---------------|-----------------|---------3-0--3-2-|
E-0---------------|-----------------|-----------------|-3----------------|
       If God can love Turkeys              God can love you.
  G G D Em  C                 E                 B7
E-------------------0-----0-|---------2-------|---------2-------|
B---------------1-----1-----|-----3-----3---3-|-----0-----0---0-|
G-------------0---0-----0---|---2---2-----2---|---2---2-----2---|
D---------------------------|-0---------------|-----------------|
A-----0-2---3---------------|-----------------|-2---------------|
E-3-3-----------------------|-----------------|-----------------|
 Hm Hm Hm Hm Hmm… Friend. Hm Hm Hm If your feeling, cooped up. Hm Hm Hm Hm Hm
  Em                Am7               D                     F
E---------0-------|---------3-------|-----------------|------------1-------|
B-----0-----0---0-|-----1-----1---1-|-----3-----------|---------1----1---1-|
G---0---0-----0---|---2---2-----2---|---2---2---------|-------2---2----2---|
D-----------------|-----------------|-0---------------|--------------------|
A-----------------|-0---------------|-----------------|-----3--------------|
E-0---------------|-----------------|-----------------|--------------------|
    If God can love Turkeys and surely he can… God can love… You…(hold for almost forever)
  G               A
E---------3-------5-|
B-----3-----3---3-5-|
G---4---4-----4---6-|
D-----------------7-|
A-5---------------7-|
E-------------------|
 (still hold here)

Comments, Questions or maybe even Changes (which I highly doubt) send em to
corporal_chowderhead@hotmail.com yes that is my for real address.
Comments