Misc - Tumbledown Blues Chords & Tabs

 

Tumbledown Blues Chords & Tabs

Misc Chords & Tabs

Version: 1 Type: Tab 0 ratings
1 star 2 stars 3 stars 4 stars 5 stars
comments

Tumbledown Blues Tab

God knows who wrote this, my lil' sis just plays it on her
clarinet so I tabbed it to play along. expect more soon.
xxx, Lance
EVERYTHING GETS REMIXED IN THE END

E--------------------------------------------------------
B--------------------------------------------------------
G--------------------------------------------------------
D-----0-3--2-0---------3--2-0--------0--3--2--0----------
A---2-----------1--2--------------2---------------1-2----
E--3---------------------------3-------------------------


E--------------------------------------------------------
B--------------------------------------------------------
G-------0--3--2--0--------3--2--0-------------------------
D-----2--------------1-2-----------------0--3--2--0-------
A---3----------------------------------2-------------1-2--
E-----------------------------------3---------------------

E--------------------------------------------------------
B--------------------------------------------------------
G----------------------0----------------------------------
D--2-3-4---3-0--2--0------3--0----------------------------
A-------------------------------4--3--2-------------------
E----------------------------------------3--3-------------
[ Tab from: http://www.guitartabs.cc/tabs/m/misc/tumbledown_blues_tab.html ]
E---------------------------------1--0---------1--0--------
B--------------3-5-3-3--------3--------3-------------3-----
G------------------------0-4--------------3-4--------------
D--0-2--0--0----------------------------------------------
A--------------------------------------------------------
E--------------------------------------------------------

E---------1-0------------------------------------------
B-------3------3----------------------------------------
G---0-4-----------3-4----------------------------------
D--------------------------------------------------------
A--------------------------------------------------------
E--------------------------------------------------------

E-----0--3--6--5/3-----0--5/6--5-3----------1-0-----
B--1----------------4--------------------3------3--------
G------------------------------------0-4----------3-4---------
D--------------------------------------------------------
A--------------------------------------------------------
E--------------------------------------------------------
                                             { PAUSE }
E--------0-1-2--1--0-----3-2-0-----------------------------------
B---3-3----------3---3---------3-2-1-0---------------------------
G--------------------------------------0-0-----------------
D-----------------------------------------------0-1-0-3------
A--------------------------------------------------------
E--------------------------------------------------------


±±±±±±±±±±±±±±±±±±±±±all for her±±±±±±±±±±±±±±±±±±±±±±±±±±±±±
Comments