Misc - The Star Spangled Banner Chords & Tabs

 

The Star Spangled Banner Chords & Tabs

Misc Chords & Tabs

Version: 7 Type: Tab 0 ratings
1 star 2 stars 3 stars 4 stars 5 stars
comments

The Star Spangled Banner Tab

------------------------------------------------------------

            THE AMERICAN NATIONAL ANTHEM!!!!!!!!

------------------------------------------------------------
THIS I 100% RIGHT, I WORKED AND WORKED FOR A FEW DAYS NON STOP TO DO THIS!

ADD MEDIUM DISTORTION

E--0--------0-5--9-7-5----------0-0-9-7-5-4-2-4-5-5-------
B-----2---2-------------2-4-5------------------------5-2--
G-------2-----------------------------------------------2-
D---------------------------------------------------------X2
A---------------------------------------------------------
E---------------------------------------------------------
[ Tab from: http://www.guitartabs.cc/tabs/m/misc/the_star_spangled_banner_tab_ver_7.html ]
E--9-9-9-10-12-12--10-9-7-9-10-10-
B---------------------------------
G---------------------------------
D---------------------------------
A---------------------------------
E---------------------------------

E-10-9--7-5-4--2-4-5--5-----------
B------------------------5-2------
G----------------------------2----
D---------------------------------
A---------------------------------
E---------------------------------

E--0-5-5-5-4-2-2-2-7-10-9-7-5---4-
B---------------------------------
G---------------------------------
D---------------------------------
A---------------------------------
E---------------------------------

E-0-0-5--7-9-10-12--5-7-9--10-7--5-
B----------------------------------
G----------------------------------
D----------------------------------
A----------------------------------
E----------------------------------


BY: JOE & GOD BLESS AMERICA!
Comments