Misc - The Star Spangled Banner Chords & Tabs

 

The Star Spangled Banner Chords & Tabs

Misc Chords & Tabs

Version: 6 Type: Tab 0 ratings
1 star 2 stars 3 stars 4 stars 5 stars
comments

The Star Spangled Banner Tab

e------0------0--5-----7/9--7--5----------------9-7-5-5/4---
---------2--2--------------------2-4-4/5~---5-5-------------
----------2-------------------------------------------------
------------------------------------------------------------
------------------------------------------------------------
E----------------------------------------------------------

e-2-4-5-5------------0-------0--5-----7/9--7--5-------------
---------5-2----------2---2--------------------2-4-4/5~---5-
-------------2----------2-----------------------------------
------------------------------------------------------------
------------------------------------------------------------
E-----------------------------------------------------------
[ Tab from: http://www.guitartabs.cc/tabs/m/misc/the_star_spangled_banner_tab_ver_6.html ]
e-9-7-5-5/4---2-4-5-5----------9-9-9-10-10/12-12-10-9-7-9-10
5---------------------5-2-----------------------------------
--------------------------2---------------------------------
------------------------------------------------------------
------------------------------------------------------------
E-----------------------------------------------------------

e-10---10-9-7-5-4---2-4-5-----------5-5--5-4-2-2-2--7-10-9-
--------------------------2-4-5---5-------------------------
------------------------------------------------------------
------------------------------------------------------------
------------------------------------------------------------
E-----------------------------------------------------------

e--7-5-5--5/4---0-0-5-7-9-10-10/12---5-7-9--9/10-7-5--------
------------------------------------------------------------
------------------------------------------------------------
------------------------------------------------------------
------------------------------------------------------------
E-----------------------------------------------------------
Comments