Misc - The Star Spangled Banner Chords & Tabs

 

The Star Spangled Banner Chords & Tabs

Misc Chords & Tabs

Version: 1 Type: Tab 0 ratings
1 star 2 stars 3 stars 4 stars 5 stars
comments

The Star Spangled Banner Tab

Star Spangled Banner.
 Tabbed by Justin Romeo2800@webtv.net.
  
---------0-----4---2---0-----------------------------
0-------0--------------------------0-0-7/9--7-5-4-2-4
-1-----1------------------1-3-4----------------------
--2--------------------------------------------------
-----------------------------------------------------
-----------------------------------------------------

----------|           |4-4-4-5-7-7-5-4-2-4-5-5--5-4-2
5--5--0---|           |------------------------------
--------1-|           |------------------------------
---------2|Do twice   |------------------------------
----------|           |------------------------------
----------|           |------------------------------
[ Tab from: http://www.guitartabs.cc/tabs/m/misc/the_star_spangled_banner_tab.html ]
|0---------------------------------------2-4-5-4-2--
|-4---2-4-5------------0--5-5-5-4-2-2-2------------4-
|-------------1--3--4--------------------------------
|----------------------------------------------------
|----------------------------------------------------
|----------------------------------------------------

|--------------2--4--5--7--------2--4--5----2--------
|5--4--0--0--5----------------5------------------5---
|----------------------------------------------------
|----------------------------------------------------
|----------------------------------------------------
|---------------------------------------------------- 
:: Ultimate Guitar Archive :: 
http://www.ultimate-guitar.com 



Comments