Misc - The Last Of The Mohicans Chords & Tabs

 

The Last Of The Mohicans Chords & Tabs

Misc Chords & Tabs

Version: 1 Type: Tab 0 ratings
1 star 2 stars 3 stars 4 stars 5 stars
comments

The Last Of The Mohicans Tab

   
Date: Fri, 8 Oct 2004 19:21:24 +0200 (CEST)
From: Magyar Attila Mihaly 
Subject: l/last_of_the_mohicans/promentory.tab


THE LAST OF THE MOHICANS
Promentory

(Original Soundtrack)


The whole track is made of

Dm Dm C C F C Dm Dm

(Once, in the middle of the song, it leaves out the last Dm)


E----------------------------------
B----------------------------------
G----------------------------------
D-----------------3----------------
A-5---5---3---3---3---3---5--------
E-5---5---3---3--(1)--3---5--------


  Dm
E----------------------------------
B-----------5h6-5----5-------------
G-(5h)7p5h7--------7----7-5-7-5----
D-------------------------------7--
A----------------------------------
E----------------------------------
  1         2        3      4


  Dm
E----------------------------------
B-----------5h6-5----5-------------
G-(5h)7p5h7--------7----7-5-7-5----
D-------------------------------5--
A----------------------------------
E----------------------------------
  1         2        3      4


  C
E---------------0h3-0-0------------
B---------5p3h5---------3h5-3-5----
G-4h5p4h5--------------------------
D----------------------------------
A----------------------------------
E---------------------------------- [x2]
  1       2     3       4
[ Tab from: http://www.guitartabs.cc/tabs/m/misc/the_last_of_the_mohicans_tab.html ]
  F
E----------------------------------
B-5p6h5p6-6p5h6-5h8-6-6-5h6-5-/3---
G----------------------------------
D----------------------------------
A----------------------------------
E----------------------------------
  1       2     3       4

  C
E---------------0h3-0-0------------
B-3h5p3h5-5p3h5--------3h5-3-------
G----------------------------5-----
D----------------------------------
A----------------------------------
E----------------------------------
  1       2     3      4

  Dm
E----------------------------------
B---------------5h6-5--------------
G-5h7p5h7-7p5h7-------7----7-7-----
D-----------------------7|---------
A----------------------------------
E----------------------------------
  1       2     3       4

  Dm
E----------------------------------
B---------------5h6-5---5----------
G-5h7p5h7-7p5h7-------7---7-5------
D----------------------------------
A----------------------------------
E----------------------------------
  1       2     3       4


Symphonic part:

          Dm    Dm          C    C F           C        Dm
E-(10-12)-13-12-10----10-13-12-15--13-17-15-13-12-15-12-12-10-
B------------------10-----------------------------------------
G-------------------------------------------------------------
D-------------------------------------------------------------
A-------------------------------------------------------------
E-------------------------------------------------------------

my favourite OST, and it's not too hard to play. i'm not sure
this tab is 100% correct, but it sounds good when i play it
together with the CD.

TABBED BY: ATTILA MAGYER

Comments