Misc - The Chicken Dance Chords & Tabs

 

The Chicken Dance Chords & Tabs

Misc Chords & Tabs

Version: 1 Type: Tab

The Chicken Dance Tab

This is the chicken dance! if you add distortion it can sound like the Taco Bell commercial. either way it\\\'s still fun(I don wann be a chicken, I don wanna be a duck so I wiggle my...)  ;D



|----------------------------------------------------------|
|----------------------------------------------------------|
|----------------------------------------------------------|----------------------------------------------------------|
|----------------------------------------------------------|
|--6-6-8-8-3-3-6--6-6-8-8-3-3-6--6-6-8-8-11-11-10-8-6-4-3--|

[ Tab from: http://www.guitartabs.cc/tabs/m/misc/the_chicken_dance_tab.html ]
|----------------------------------------------------------|
|----------------------------------------------------------|
|----------------------------------------------------------|
|----------------------------------------------------------|
|----------------------------------------------------------|
|3-3-5-5-0-0-3--3-3-5-5-0-0-3--3-3-5-5-8-8-7--5--3--1--1-0-|


|----------------------------------------------------------|
|----------------------------------------------------------|
|----------------------------------------------------------|
|----------------------------------------------------------|
|----------------------------------------------------------|
|-6-6-8-8-3-6--6-6-8-8-3-3-6--6-6-8-8-11-11-10-8-6-4-3--3-3|


|---------------------------------------8-3-0--------------|
|---------------------------------------------3-1----------|
|----------------------------------------------------------|
|----------------------------------------------------------|
|----------------------------------------------------------|
|-5-5-0-0-3--3-3-5-5-0-0-3--3-3-5-5-7-7--------------------|


And there you have it!