Misc - That 70s Show Chords & Tabs

 

That 70s Show Chords & Tabs

Misc Chords & Tabs

Version: 1 Type: Tab 1 rating
1 star 2 stars 3 stars 4 stars 5 stars
comments

That 70s Show Tab

ok, I've looked far and wide for this tab
but I couldn't find it.  I figured it out on my
own so it might be kind of screwed up, but
meh.  who gives a care.

intro
e/------------
b/------------
g/------------
d/-----------0
a/------0-1-2-
e/-0-1-2------

guitar 1 (clean)
hangin' out...    down the street...
e/----2---3--2-------3---3--3---
b/---3--3---3--3----1--1---1--1-
g/-2-----2------2-0-----0------0
d/------------------------------
a/------------------------------
e/------------------------------
[ Tab from: http://www.guitartabs.cc/tabs/m/misc/that_70s_show_tab.html ]
guitar 2  (distorted)
e/------------------------------
b/------------------------------
g/------------------------------
d/------------------------------
a/------------------------------
e/---------------------0-1-2-1-0

now, only one guitar
and nothing to do...
e/------------------
b/------------------
g/7--6--4--7--6--4--
d/7--6--4--7--6--4--
a/5--4--2--5--4--2--
e/------------------

were all allright!
e/--------------
b/--------------
g/-7-7-7---7-7-7
d/-7-7-7---7-7-7
a/-5-5-5---5-5-5
e/--------------
Comments