Misc - Tequila Chords & Tabs

 

Tequila Chords & Tabs

Misc Chords & Tabs

Version: 1 Type: Tab 2 ratings
1 star 2 stars 3 stars 4 stars 5 stars
comments

Tequila Tab

#----------------------------------PLEASE NOTE---------------------------------#
#This file is the author's own work and represents their interpretation of the #
#song. You may only use this file for private study, scholarship, or research. #
#------------------------------------------------------------------------------#
TEQUILA!!
[ Tab from: http://www.guitartabs.cc/tabs/m/misc/tequila_tab.html ]
E|---3-3-1-5-1-3----3-3-1-5-1-3------------------------------
B|---------------3-------------------------------------------
G|-----------------------------------------------------------
D|-----------------------------------------------------------
A|-----------------------------------------------------------
E|----------------------------------------------------------- x2
            ~~
E|---1-3-5-6---3---------------------------------------------
B|-----------------------------------------------------------
G|-----------------------------------------------------------
D|-----------------------------------------------------------
A|-----------------------------------------------------------
E|----------------------------------------------------------- x3

E|-5-5-5-5-5-5-----------------------------------------------
B|---------------3-------------------------------------------
G|-----------------------------------------------------------
D|-----------------------------------------------------------
A|-----------------------------------------------------------
E|-----------------------------------------------------------

tabbed by chuck, you know the one, dont forget to yell out TEQUILA when playing
Comments