Misc - Tapping Exercise Chords & Tabs

 

Tapping Exercise Chords & Tabs

Misc Chords & Tabs

Version: 1 Type: Tab 1 rating
1 star 2 stars 3 stars 4 stars 5 stars
comments

Tapping Exercise Tab

Tapping always go on the 15th and 16th fret

E||---15h-8h-11h-8h-15h-8h-11h-8h-|--15h-8h-11h-8h-16h-8h-13h-8h-|
B||-------------------------------|------------------------------|
G||*------------------------------|------------------------------|
D||*------------------------------|------------------------------|
A||-------------------------------|------------------------------|
E||-------------------------------|------------------------------|


                                                                
--15h-8h-11h-8h-15h-8h-11h-8h-|--15h-8h-11h-8h-16h-8h-13h-8---||
------------------------------|-------------------------------||
------------------------------|------------------------------*||
------------------------------|------------------------------*||
------------------------------|-------------------------------||
------------------------------|-------------------------------||


                                                                  
---15--8--11--15--8--11--15--8--|--11--15--8--11--15--8--11--15--|
--------------------------------|--------------------------------|
*-------------------------------|--------------------------------|
*-------------------------------|--------------------------------|
--------------------------------|--------------------------------|
--------------------------------|--------------------------------|


                                                                    
--8--11--16--8--13--16--8--13---||---15--11--8--15--11--8--15--11--|
--------------------------------||---------------------------------|
-------------------------------*||*--------------------------------|
-------------------------------*||*--------------------------------|
--------------------------------||---------------------------------|
--------------------------------||---------------------------------|

[ Tab from: http://www.guitartabs.cc/tabs/m/misc/tapping_exercise_tab.html ]
                                                                  
--8--15--11--8--15--11--8--15--|--11--8--16--13--8--16--13--8---||
-------------------------------|--------------------------------||
-------------------------------|-------------------------------*||
-------------------------------|-------------------------------*||
-------------------------------|--------------------------------||
-------------------------------|--------------------------------||


                                                                  
---15--11--8--15--11--8--15--11--|--8--15--11--8--16--13--8--16--|
---------------------------------|-------------------------------|
*--------------------------------|-------------------------------|
*--------------------------------|-------------------------------|
---------------------------------|-------------------------------|
---------------------------------|-------------------------------|


                                                                 
--13--8--16--13--8--16--13--8--|--13--10--8--10--7--10--13--10--|
-------------------------------|--------------------------------|
-------------------------------|--------------------------------|
-------------------------------|--------------------------------|
-------------------------------|--------------------------------|
-------------------------------|--------------------------------|


                                                                        
--8--10--7--10--15--11--8--15--|--11--8--15--11--8--15--11--8---||----||
-------------------------------|--------------------------------||----||
-------------------------------|-------------------------------*||----||
-------------------------------|-------------------------------*||----||
-------------------------------|--------------------------------||----||
-------------------------------|--------------------------------||----||
Comments