Misc - Take Me Out To The Ball Game Chords & Tabs

 

Take Me Out To The Ball Game Chords & Tabs

Misc Chords & Tabs

Version: 1 Type: Tab 3 ratings
1 star 2 stars 3 stars 4 stars 5 stars
comments

Take Me Out To The Ball Game Tab

Yeah this is the song thats so many people sing to at the baseball games.
Enjoy!

Standard Tuning



e----------------------------------------------------------------------------
B----------------------------------------------------------------------------
G-----10--7------------------10--7-------------------------------------------
D----------10--7--10---------------10--7--10---12-12-12----8--10--12--8------
A---8---------------10-----8---------------------------12---------------10---
E----------------------------------------------------------------------------

continued....
[ Tab from: http://www.guitartabs.cc/tabs/m/misc/take_me_out_to_the_ball_game_tab.html ]
e--------------------------------------------------------------------------------------------------------------
B--------------8-8---------------------------------------------------------------------------------------------
G--7--7-7-9-10-----9----------------10--7--------------------------------7-9-10--10--10-9-7-----------7--9--10-
D--------------------10-----7-------------10--7--10----------------7-8----------------------10--7--10----------
A-----------------------------10--8----------------10--10--8-8-8-10--------------------------------------------
E--------------------------------------------------------------------------------------------------------------


Comments go to Duffman8445@msn.com
Comments