Misc - Sweet Song Chords & Tabs

 

Sweet Song Chords & Tabs

Misc Chords & Tabs

Version: 1 Type: Tab 0 ratings
1 star 2 stars 3 stars 4 stars 5 stars
comments

Sweet Song Tab

   


               this is a sweet song if played right




F#open                  A#open              E               D9????
e-------0--         e-------0--          e-------0---         e-------0--
B-----0----         B-----0----          B-----0----          B-----2----
G----3-----         G----6-----          G----1-----          G----2-----
D---4------         D---7------          D---2------          D---0------
A--4-------         A--7-------          A--2-------          A--0-------
E-x--------         E-x--------          E-0---------         E-2--------




p* = pause and let it ring

plat it kinda fast . its really easy once you get it down

[ Tab from: http://www.guitartabs.cc/tabs/m/misc/sweet_song_tab.html ]
e--------------0------0-----------------0----------------0-------0---------------------0-----
B---------------0------0-----------------0-----------------0-------0---------------------0---
G----------3-----3-------3----------6-----6p*---------------1--------1------------3-------3p*-
D--------4------------------4-----7----------------2---------------------2------4--------------
A-----4------------------------7----------------2----------------------------4-----------------
E---------------------------------------------0-----------------------------------------------

repeat once more




e------------0---------0-----------------0----------------0---------
B---------------2--------2-----------------0----------------0-------
G------------------2-------2-----------------1--------3-------3-----
D-------0--------------------0-------2--------------4---------------
A----0-----------------------------2--------------4-----------------
E-2------------------------------0----------------------------------

repeat twice



then strum

F# open      A#open        E           X=3
5count          2count        3count




D9??          E                  F#open     X=4    on the 4th time dont hit the F#open let it hang on E
5count        2count          3count



then go back to picking the intro to end it







This sounds really familiar to me . I wouldn't be suprised if it was some other song that I dont know the name of . Anyway enjoy

questions or comments Email me at Eciv1@cs.com
Comments