Misc - Super Mario Theme Chords & Tabs

 

Super Mario Theme Chords & Tabs

Misc Chords & Tabs

Version: 1 Type: Tab 12 ratings
1 star 2 stars 3 stars 4 stars 5 stars
comments

Super Mario Theme Tab

Super Mario Theme

* = Natural Harmonic/Coins
       Play once                    Play twice                

E |-0-0-0---0-3----|---------------|---0-----------|0--------------|
B |-------1--------|-1-------0-----|-----8-10-6-8--|--1-3-0--------|
G |-------------0--|---0---2---3-2-|-0-------------|---------------|
D |----------------|-----2---------|---------------|---------------|
A |----------------|---------------|---------------|---------------|
E |----------------|---------------|---------------|---------------|
  
        
E |-3-2-1---0------|------3-2-1----|0-888/-3-2-1---|0--------------|
B |-------4-------1|--1-3-------4--|-------------4-|------1---1-3--|
G |-----------1-2--|2--------------|---------------|--1-2---2------|
D |----------------|---------------|---------------|---------------|
A |----------------|---------------|---------------|---------------|
E |----------------|---------------|---------------|---------------|
    
  
E |-------------0--|--------------0|-------0-------|-0-0-0---0-3---|
B |-4-3-1—11113----|-1------11113--|-11113---1-----|-------1-------|
G |----------------|---2-0---------|----------2-0--|-------------0-|
D |----------------|---------------|---------------|---------------|
A |----------------|---------------|---------------|---------------|
E |----------------|---------------|---------------|---------------|
[ Tab from: http://www.guitartabs.cc/tabs/m/misc/super_mario_theme_tab.html ]
E |--------------------------------5*--------5*---5*-------------|
B |------------------------------5*---5*5*5*---5*----------------|
G |--------------------------------------------------------------|
D |---10---7---8------10---7---8---------------------------------|
A |--------------------------------------------------------------|
E |-8----5---6------8----5---6-----------------------------------|

E |-------------------------------------------20-15----------21-16---------22-19-|
B |-------------------------------------16-20----------17-21----------18-20------|
G |---10---7---8------10---7---8--17-17-------------18-------------19------------|
D |------------------------------------------------------------------------------|
A |-8----5---6------8----5---6---------------------------------------------------|
E |------------------------------------------------------------------------------|

E |--------------------------------------------------------------|
B |--------------------------------------------------------------|
G |--------------------------3-2-1-------------------------------|
D |--------------------4-3-2-------1-0---------------------------|
A |-6-5-3--6-5-----4-3-----------------1-0-----------------------|
E |------------4-3-------------------------4-3-------------------|

E |----------------12-15-12-----------------16-13----------------------18-18-20--|
B |-------------13----13-8---------------14-14-9--------------------20—16-15-17--|
G |----------12-----------------------13-----------------------20----------------|
D |----10-14--------------------11-15-----------------13-17-20-------------------|
A |-10-----------------------11--------------------13----------------------------|
E |------------------------------------------------------------------------------|
Comments