Misc - Super Mario Brothers Theme Chords & Tabs

 

Super Mario Brothers Theme Chords & Tabs

Misc Chords & Tabs

Version: 1 Type: Tab 0 ratings
1 star 2 stars 3 stars 4 stars 5 stars
comments

Super Mario Brothers Theme Tab

   
Misc: Mario Brothers Theme

Tuning: E A D G B E (Standard)

e|-------------------------------------------------------|
B|-------------------------------------------------------|
G|-------------------------------------------------------|
D|-------------5------6---------7------5-----6-----7-----|
A|-------------------------------------------------------|
E|-7-------4-------5------------7-----4-----5------------|

e|-------------------------------------------------------|
B|-------------------------------------------------------|
G|-------------------------------------------------------|
D|-----5-------2------1--------5-----2-----1-------------|
A|-------------------------------------------------------|
E|--3------0------3--------------3----0-----3------------|

e|--0-0-0---0-3-----|
B|--------1---------|
G|---------------0--|
D|------------------|
A|------------------|
E|------------------|

e|-----------------------0-3-5--1-3-0--------|
B|--1----------0----------------------1-3-0--|
G|-----0-----2---3-2---0---------------------|
D|--------2----------------------------------| x2
A|-------------------------------------------|
E|-------------------------------------------|

e|--3-2-1---0---------------3-2-1---0--8-8-8---3-2-1---0-----------------------|
B|--------4-------1---1-3---------4------------------4-------1---1-3----4-3-1--|
G|------------1-2---2------------------------------------1-2---2---------------|
D|-----------------------------------------------------------------------------| x2
A|-----------------------------------------------------------------------------|
E|-----------------------------------------------------------------------------|

                                      
e|------------0--------------------0----------------0--------|
B|--1-1-1-1-3---1--------1-1-1-1-3--------1-1-1-1-3---1------|
G|----------------2-0-----------------------------------2-0--|
D|-----------------------------------------------------------|
A|-----------------------------------------------------------|
E|-----------------------------------------------------------|

e|--0-0-0---0-3----|
B|--------1--------|
G|--------------0--|
D|-----------------|
A|-----------------|
E|-----------------|

e|-----------------------0-3-5--1-3-0--------|
B|--1----------0----------------------1-3-0--|
G|-----0-----2---3-2---0---------------------|
D|--------2----------------------------------| x2
A|-------------------------------------------|
E|-------------------------------------------|
[ Tab from: http://www.guitartabs.cc/tabs/m/misc/super_mario_brothers_theme_tab.html ]
e|-0-----------1-1-------5-5-5-3-1-0----------0-----------1-1-------1-1-1-0-------------|
B|---1-----------------0-------------1----------1-----------------0---------3-1---------|
G|-----0--1--2-----2--------------------2-0-------0--1--2-----2-------------------------|X2
D|------------------------------------------------------------------------------3--3----|
A|-----------------------------------------------------------------------------------4--|
E|--------------------------------------------------------------------------------------|

e|------------0--------------------0--------------0--------|
B|--1-1-1-1-3---1--------1-1-1-1-3------1-1-1-1-3---1------|
G|----------------2-0---------------------------------2-0--|
D|---------------------------------------------------------|
A|---------------------------------------------------------|
E|---------------------------------------------------------|

e|--0-0-0---0-3-----|
B|--------1---------|
G|---------------0--|
D|------------------|
A|------------------|
E|------------------|

e|--0-----------1-1-------5-5-5-3-1-0----------0-----------1-1-------1-1-1-0-------------|
B|----1-----------------0-------------1----------1-----------------0---------3-1---------|
G|------0--1--2-----2--------------------2-0-------0--1--2-----2-------------------------|
D|-------------------------------------------------------------------------------3--3----|
A|------------------------------------------------------------------------------------4--|
E|---------------------------------------------------------------------------------------|

e|-----------------------0-3-5--1-3-0--------|
B|--1----------0----------------------1-3-0--|
G|-----0-----2---3-2---0---------------------|
D|--------2----------------------------------| x2
A|-------------------------------------------|
E|-------------------------------------------|

e|--3-2-1---0---------------3-2-1---0--8-8-8----3-2-1---0----------------------|
B|--------4-------1---1-3---------4-------------------4-------1---1-3---4-3-1--|
G|------------1-2---2-------------------------------------1-2---2--------------|
D|-----------------------------------------------------------------------------| x2
A|-----------------------------------------------------------------------------|
E|-----------------------------------------------------------------------------|

                                    
e|------------0--------------------0--|
B|--1-1-1-1-3---1--------1-1-1-1-3----|
G|----------------2-0-----------------|
D|------------------------------------|
A|------------------------------------|
E|------------------------------------|

Any questions or comments feel free to email me at deathshadow519@hotmail.com
Comments